  0
SECTION
  2
HEADER
  9
$ACADVER
  1
AC1015
  9
$ACADMAINTVER
 70
     6
  9
$DWGCODEPAGE
  3
ANSI_1254
  9
$INSBASE
 10
0.0
 20
0.0
 30
0.0
  9
$EXTMIN
 10
0.0
 20
0.0
 30
0.0
  9
$EXTMAX
 10
279.4
 20
215.9
 30
0.0
  9
$LIMMIN
 10
0.0
 20
0.0
  9
$LIMMAX
 10
279.4
 20
215.9
  9
$ORTHOMODE
 70
     0
  9
$REGENMODE
 70
     1
  9
$FILLMODE
 70
     1
  9
$QTEXTMODE
 70
     0
  9
$MIRRTEXT
 70
     1
  9
$LTSCALE
 40
1.0
  9
$ATTMODE
 70
     1
  9
$TEXTSIZE
 40
3.5
  9
$TRACEWID
 40
1.0
  9
$TEXTSTYLE
  7
Standard
  9
$CLAYER
  8
0
  9
$CELTYPE
  6
ByLayer
  9
$CECOLOR
 62
   256
  9
$CELTSCALE
 40
1.0
  9
$DISPSILH
 70
     0
  9
$DIMSCALE
 40
1.0
  9
$DIMASZ
 40
3.5
  9
$DIMEXO
 40
1.0
  9
$DIMDLI
 40
3.75
  9
$DIMRND
 40
0.0
  9
$DIMDLE
 40
0.0
  9
$DIMEXE
 40
1.0
  9
$DIMTP
 40
0.0
  9
$DIMTM
 40
0.0
  9
$DIMTXT
 40
3.5
  9
$DIMCEN
 40
2.5
  9
$DIMTSZ
 40
0.0
  9
$DIMTOL
 70
     0
  9
$DIMLIM
 70
     0
  9
$DIMTIH
 70
     1
  9
$DIMTOH
 70
     1
  9
$DIMSE1
 70
     0
  9
$DIMSE2
 70
     0
  9
$DIMTAD
 70
     1
  9
$DIMZIN
 70
     0
  9
$DIMBLK
  1

  9
$DIMASO
 70
     1
  9
$DIMSHO
 70
     1
  9
$DIMPOST
  1

  9
$DIMAPOST
  1

  9
$DIMALT
 70
     0
  9
$DIMALTD
 70
     3
  9
$DIMALTF
 40
0.0393700787
  9
$DIMLFAC
 40
1.0
  9
$DIMTOFL
 70
     1
  9
$DIMTVP
 40
0.0
  9
$DIMTIX
 70
     0
  9
$DIMSOXD
 70
     0
  9
$DIMSAH
 70
     0
  9
$DIMBLK1
  1

  9
$DIMBLK2
  1

  9
$DIMSTYLE
  2
ISO-25
  9
$DIMCLRD
 70
     0
  9
$DIMCLRE
 70
     0
  9
$DIMCLRT
 70
     0
  9
$DIMTFAC
 40
1.0
  9
$DIMGAP
 40
1.524
  9
$DIMJUST
 70
     0
  9
$DIMSD1
 70
     0
  9
$DIMSD2
 70
     0
  9
$DIMTOLJ
 70
     0
  9
$DIMTZIN
 70
     0
  9
$DIMALTZ
 70
     0
  9
$DIMALTTZ
 70
     0
  9
$DIMUPT
 70
     0
  9
$DIMDEC
 70
     2
  9
$DIMTDEC
 70
     2
  9
$DIMALTU
 70
     2
  9
$DIMALTTD
 70
     3
  9
$DIMTXSTY
  7
Standard
  9
$DIMAUNIT
 70
     0
  9
$DIMADEC
 70
     2
  9
$DIMALTRND
 40
0.0
  9
$DIMAZIN
 70
     0
  9
$DIMDSEP
 70
    44
  9
$DIMATFIT
 70
     3
  9
$DIMFRAC
 70
     0
  9
$DIMLDRBLK
  1

  9
$DIMLUNIT
 70
     2
  9
$DIMLWD
 70
    -2
  9
$DIMLWE
 70
    -2
  9
$DIMTMOVE
 70
     0
  9
$LUNITS
 70
     2
  9
$LUPREC
 70
     2
  9
$SKETCHINC
 40
1.0
  9
$FILLETRAD
 40
10.0
  9
$AUNITS
 70
     0
  9
$AUPREC
 70
     2
  9
$MENU
  1
.
  9
$ELEVATION
 40
0.0
  9
$PELEVATION
 40
0.0
  9
$THICKNESS
 40
0.0
  9
$LIMCHECK
 70
     0
  9
$CHAMFERA
 40
0.0
  9
$CHAMFERB
 40
0.0
  9
$CHAMFERC
 40
0.0
  9
$CHAMFERD
 40
0.0
  9
$SKPOLY
 70
     0
  9
$TDCREATE
 40
2459935.699460243
  9
$TDUCREATE
 40
2459935.574460243
  9
$TDUPDATE
 40
2459935.699460417
  9
$TDUUPDATE
 40
2459935.574460417
  9
$TDINDWG
 40
0.0000000116
  9
$TDUSRTIMER
 40
0.0000000116
  9
$USRTIMER
 70
     1
  9
$ANGBASE
 50
0.0
  9
$ANGDIR
 70
     0
  9
$PDMODE
 70
     0
  9
$PDSIZE
 40
-1.0
  9
$PLINEWID
 40
0.0
  9
$SPLFRAME
 70
     0
  9
$SPLINETYPE
 70
     6
  9
$SPLINESEGS
 70
     8
  9
$HANDSEED
  5
ED
  9
$SURFTAB1
 70
     6
  9
$SURFTAB2
 70
     6
  9
$SURFTYPE
 70
     6
  9
$SURFU
 70
     6
  9
$SURFV
 70
     6
  9
$UCSBASE
  2

  9
$UCSNAME
  2

  9
$UCSORG
 10
0.0
 20
0.0
 30
0.0
  9
$UCSXDIR
 10
1.0
 20
0.0
 30
0.0
  9
$UCSYDIR
 10
0.0
 20
1.0
 30
0.0
  9
$UCSORTHOREF
  2

  9
$UCSORTHOVIEW
 70
     0
  9
$UCSORGTOP
 10
0.0
 20
0.0
 30
0.0
  9
$UCSORGBOTTOM
 10
0.0
 20
0.0
 30
0.0
  9
$UCSORGLEFT
 10
0.0
 20
0.0
 30
0.0
  9
$UCSORGRIGHT
 10
0.0
 20
0.0
 30
0.0
  9
$UCSORGFRONT
 10
0.0
 20
0.0
 30
0.0
  9
$UCSORGBACK
 10
0.0
 20
0.0
 30
0.0
  9
$PUCSBASE
  2

  9
$PUCSNAME
  2

  9
$PUCSORG
 10
0.0
 20
0.0
 30
0.0
  9
$PUCSXDIR
 10
1.0
 20
0.0
 30
0.0
  9
$PUCSYDIR
 10
0.0
 20
1.0
 30
0.0
  9
$PUCSORTHOREF
  2

  9
$PUCSORTHOVIEW
 70
     0
  9
$PUCSORGTOP
 10
0.0
 20
0.0
 30
0.0
  9
$PUCSORGBOTTOM
 10
0.0
 20
0.0
 30
0.0
  9
$PUCSORGLEFT
 10
0.0
 20
0.0
 30
0.0
  9
$PUCSORGRIGHT
 10
0.0
 20
0.0
 30
0.0
  9
$PUCSORGFRONT
 10
0.0
 20
0.0
 30
0.0
  9
$PUCSORGBACK
 10
0.0
 20
0.0
 30
0.0
  9
$USERI1
 70
     0
  9
$USERI2
 70
     0
  9
$USERI3
 70
     0
  9
$USERI4
 70
     0
  9
$USERI5
 70
     0
  9
$USERR1
 40
0.0
  9
$USERR2
 40
0.0
  9
$USERR3
 40
0.0
  9
$USERR4
 40
0.0
  9
$USERR5
 40
0.0
  9
$WORLDVIEW
 70
     1
  9
$SHADEDGE
 70
     3
  9
$SHADEDIF
 70
    70
  9
$TILEMODE
 70
     1
  9
$MAXACTVP
 70
    64
  9
$PINSBASE
 10
0.0
 20
0.0
 30
0.0
  9
$PLIMCHECK
 70
     0
  9
$PEXTMIN
 10
1.0000000000E+20
 20
1.0000000000E+20
 30
1.0000000000E+20
  9
$PEXTMAX
 10
-1.0000000000E+20
 20
-1.0000000000E+20
 30
-1.0000000000E+20
  9
$PLIMMIN
 10
0.0
 20
0.0
  9
$PLIMMAX
 10
420.0
 20
297.0
  9
$UNITMODE
 70
     0
  9
$VISRETAIN
 70
     1
  9
$PLINEGEN
 70
     0
  9
$PSLTSCALE
 70
     1
  9
$TREEDEPTH
 70
  3020
  9
$CMLSTYLE
  2
Standard
  9
$CMLJUST
 70
     0
  9
$CMLSCALE
 40
20.0
  9
$PROXYGRAPHICS
 70
     1
  9
$MEASUREMENT
 70
     1
  9
$CELWEIGHT
370
    -1
  9
$ENDCAPS
280
     0
  9
$JOINSTYLE
280
     0
  9
$LWDISPLAY
290
     1
  9
$INSUNITS
 70
     4
  9
$HYPERLINKBASE
  1

  9
$STYLESHEET
  1

  9
$XEDIT
290
     1
  9
$CEPSNTYPE
380
     0
  9
$PSTYLEMODE
290
     1
  9
$FINGERPRINTGUID
  2
{6b60a885-6401-419b-8185-531d476c47bb}
  9
$VERSIONGUID
  2
{FAEB1C32-E019-11D5-929B-00C0DF256EC4}
  9
$EXTNAMES
290
     1
  9
$PSVPSCALE
 40
0.0
  9
$OLESTARTUP
290
     0
  0
ENDSEC
  0
SECTION
  2
CLASSES
  0
CLASS
  1
ACDBDICTIONARYWDFLT
  2
AcDbDictionaryWithDefault
  3
ObjectDBX Classes
 90
        0
280
     0
281
     0
  0
CLASS
  1
VISUALSTYLE
  2
AcDbVisualStyle
  3
ObjectDBX Classes
 90
     4095
280
     0
281
     0
  0
CLASS
  1
MATERIAL
  2
AcDbMaterial
  3
ObjectDBX Classes
 90
     1153
280
     0
281
     0
  0
CLASS
  1
SCALE
  2
AcDbScale
  3
ObjectDBX Classes
 90
     1153
280
     0
281
     0
  0
CLASS
  1
TABLESTYLE
  2
AcDbTableStyle
  3
ObjectDBX Classes
 90
     4095
280
     0
281
     0
  0
CLASS
  1
MLEADERSTYLE
  2
AcDbMLeaderStyle
  3
ACDB_MLEADERSTYLE_CLASS
 90
     4095
280
     0
281
     0
  0
CLASS
  1
SUN
  2
AcDbSun
  3
SCENEOE
 90
     1153
280
     0
281
     0
  0
CLASS
  1
ACDBPLACEHOLDER
  2
AcDbPlaceHolder
  3
ObjectDBX Classes
 90
        0
280
     0
281
     0
  0
CLASS
  1
LAYOUT
  2
AcDbLayout
  3
ObjectDBX Classes
 90
        0
280
     0
281
     0
  0
ENDSEC
  0
SECTION
  2
TABLES
  0
TABLE
  2
VPORT
  5
8
330
0
100
AcDbSymbolTable
 70
     1
  0
VPORT
  5
29
330
8
100
AcDbSymbolTableRecord
100
AcDbViewportTableRecord
  2
*Active
 70
     0
 10
0.0
 20
0.0
 11
1.0
 21
1.0
 12
139.7
 22
107.95
 13
0.0
 23
0.0
 14
10.0
 24
10.0
 15
10.0
 25
10.0
 16
0.0
 26
0.0
 36
1.0
 17
0.0
 27
0.0
 37
0.0
 40
215.9
 41
1.2941176471
 42
50.0
 43
0.0
 44
0.0
 50
0.0
 51
0.0
 71
     0
 72
  2000
 73
     1
 74
     3
 75
     0
 76
     0
 77
     0
 78
     0
281
     0
 65
     1
110
0.0
120
0.0
130
0.0
111
1.0
121
0.0
131
0.0
112
0.0
122
1.0
132
0.0
 79
     0
146
0.0
  0
ENDTAB
  0
TABLE
  2
LTYPE
  5
5
330
0
100
AcDbSymbolTable
 70
     6
  0
LTYPE
  5
14
330
5
100
AcDbSymbolTableRecord
100
AcDbLinetypeTableRecord
  2
ByBlock
 70
     0
  3

 72
    65
 73
     0
 40
0.0
  0
LTYPE
  5
15
330
5
100
AcDbSymbolTableRecord
100
AcDbLinetypeTableRecord
  2
ByLayer
 70
     0
  3

 72
    65
 73
     0
 40
0.0
  0
LTYPE
  5
16
330
5
100
AcDbSymbolTableRecord
100
AcDbLinetypeTableRecord
  2
Continuous
 70
     0
  3
Solid line
 72
    65
 73
     0
 40
0.0
  0
LTYPE
  5
6E
330
5
100
AcDbSymbolTableRecord
100
AcDbLinetypeTableRecord
  2
HIDDEN
 70
     0
  3
Hidden __ __ __ __ __ __ __ __ __ __ __ __ __ __
 72
    65
 73
     2
 40
1.905
 49
1.27
 74
     0
 49
-0.635
 74
     0
  0
LTYPE
  5
6F
330
5
100
AcDbSymbolTableRecord
100
AcDbLinetypeTableRecord
  2
PHANTOM
 70
     0
  3
Phantom ______  __  __  ______  __  __  ______
 72
    65
 73
     6
 40
12.7
 49
6.35
 74
     0
 49
-1.27
 74
     0
 49
1.27
 74
     0
 49
-1.27
 74
     0
 49
1.27
 74
     0
 49
-1.27
 74
     0
  0
LTYPE
  5
70
330
5
100
AcDbSymbolTableRecord
100
AcDbLinetypeTableRecord
  2
CENTER
 70
     0
  3
Center ____ _ ____ _ ____ _ ____ _ ____ _ ____
 72
    65
 73
     4
 40
10.16
 49
6.35
 74
     0
 49
-1.27
 74
     0
 49
1.27
 74
     0
 49
-1.27
 74
     0
  0
LTYPE
  5
71
330
5
100
AcDbSymbolTableRecord
100
AcDbLinetypeTableRecord
  2
CENTERX2
 70
     0
  3
Center (2x) ________  __  ________  __  _____
 72
    65
 73
     4
 40
20.32
 49
12.7
 74
     0
 49
-2.54
 74
     0
 49
2.54
 74
     0
 49
-2.54
 74
     0
  0
LTYPE
  5
72
330
5
100
AcDbSymbolTableRecord
100
AcDbLinetypeTableRecord
  2
DOT2
 70
     0
  3
Dot (.5x) ........................................
 72
    65
 73
     2
 40
0.635
 49
0.0
 74
     0
 49
-0.635
 74
     0
  0
ENDTAB
  0
TABLE
  2
LAYER
  5
2
330
0
100
AcDbSymbolTable
 70
    17
  0
LAYER
  5
10
330
2
100
AcDbSymbolTableRecord
100
AcDbLayerTableRecord
  2
0
 70
     0
 62
     7
  6
Continuous
370
    -3
390
F
  0
LAYER
  5
73
330
2
100
AcDbSymbolTableRecord
100
AcDbLayerTableRecord
  2
FORMAT
 70
     0
 62
     7
  6
Continuous
370
    -3
390
F
  0
LAYER
  5
74
330
2
100
AcDbSymbolTableRecord
100
AcDbLayerTableRecord
  2
YARDIMCI_GEOMETRI
 70
     0
 62
    -6
  6
Continuous
290
     0
370
    -3
390
F
  0
LAYER
  5
75
330
2
100
AcDbSymbolTableRecord
100
AcDbLayerTableRecord
  2
SAYFA_CERCEVESI
 70
     0
 62
     7
  6
Continuous
370
    25
390
F
  0
LAYER
  5
76
330
2
100
AcDbSymbolTableRecord
100
AcDbLayerTableRecord
  2
ANTET
 70
     0
 62
     7
  6
Continuous
370
    -3
390
F
  0
LAYER
  5
77
330
2
100
AcDbSymbolTableRecord
100
AcDbLayerTableRecord
  2
OLCU
 70
     0
 62
   150
  6
Continuous
370
    -3
390
F
  0
LAYER
  5
78
330
2
100
AcDbSymbolTableRecord
100
AcDbLayerTableRecord
  2
METIN
 70
     0
 62
    96
  6
Continuous
370
    -3
390
F
  0
LAYER
  5
79
330
2
100
AcDbSymbolTableRecord
100
AcDbLayerTableRecord
  2
BALON
 70
     0
 62
     5
  6
Continuous
370
    -3
390
F
  0
LAYER
  5
7A
330
2
100
AcDbSymbolTableRecord
100
AcDbLayerTableRecord
  2
VURGU
 70
     0
 62
     7
  6
Continuous
370
    -3
390
F
  0
LAYER
  5
7B
330
2
100
AcDbSymbolTableRecord
100
AcDbLayerTableRecord
  2
SILIK
 70
     0
 62
     7
  6
Continuous
370
    -3
390
F
  0
LAYER
  5
7C
330
2
100
AcDbSymbolTableRecord
100
AcDbLayerTableRecord
  2
MODEL
 70
     0
 62
     7
  6
Continuous
370
    -3
390
F
  0
LAYER
  5
7D
330
2
100
AcDbSymbolTableRecord
100
AcDbLayerTableRecord
  2
DETAYLANDıRMA
 70
     0
 62
   190
  6
Continuous
370
    -3
390
F
  0
LAYER
  5
7E
330
2
100
AcDbSymbolTableRecord
100
AcDbLayerTableRecord
  2
TOLERANS
 70
     0
 62
   230
  6
Continuous
370
    -3
390
F
  0
LAYER
  5
7F
330
2
100
AcDbSymbolTableRecord
100
AcDbLayerTableRecord
  2
MERKEZ_CIZGILERI
 70
     0
 62
    30
  6
Continuous
370
    -3
390
F
  0
LAYER
  5
80
330
2
100
AcDbSymbolTableRecord
100
AcDbLayerTableRecord
  2
KESIT-DETAY_CIZGILERI
 70
     0
 62
     7
  6
Continuous
370
    -3
390
F
  0
LAYER
  5
81
330
2
100
AcDbSymbolTableRecord
100
AcDbLayerTableRecord
  2
\U+041E\U+0421\U+0415\U+0412\U+042B\U+0415
 70
     0
 62
     7
  6
Continuous
370
    -3
390
F
  0
LAYER
  5
82
330
2
100
AcDbSymbolTableRecord
100
AcDbLayerTableRecord
  2
\U+0412\U+041E\U+0414\U+042F\U+041D\U+042B\U+0415_\U+0417\U+041D\U+0410\U+041A\U+0418
 70
     0
 62
    11
  6
Continuous
370
    -3
390
F
  0
ENDTAB
  0
TABLE
  2
STYLE
  5
3
330
0
100
AcDbSymbolTable
 70
     1
  0
STYLE
  5
11
330
3
100
AcDbSymbolTableRecord
100
AcDbTextStyleTableRecord
  2
Standard
 70
     0
 40
0.0
 41
1.0
 50
0.0
 71
     0
 42
3.5
  3
txt
  4

  0
ENDTAB
  0
TABLE
  2
VIEW
  5
6
330
0
100
AcDbSymbolTable
 70
     0
  0
ENDTAB
  0
TABLE
  2
UCS
  5
7
330
0
100
AcDbSymbolTable
 70
     0
  0
ENDTAB
  0
TABLE
  2
APPID
  5
9
330
0
100
AcDbSymbolTable
 70
     1
  0
APPID
  5
12
330
9
100
AcDbSymbolTableRecord
100
AcDbRegAppTableRecord
  2
ACAD
 70
     0
  0
ENDTAB
  0
TABLE
  2
DIMSTYLE
  5
A
330
0
100
AcDbSymbolTable
 70
     1
100
AcDbDimStyleTable
  0
DIMSTYLE
105
27
330
A
100
AcDbSymbolTableRecord
100
AcDbDimStyleTableRecord
  2
ISO-25
 70
     0
 41
2.5
 42
0.625
 43
3.75
 44
1.25
 73
     0
 74
     0
 77
     1
 78
     8
140
2.5
141
2.5
143
0.0393700787
147
0.625
171
     3
172
     1
178
     0
271
     2
272
     2
274
     3
278
    44
283
     0
284
     8
340
11
  0
ENDTAB
  0
TABLE
  2
BLOCK_RECORD
  5
1
330
0
100
AcDbSymbolTable
 70
     5
  0
BLOCK_RECORD
  5
1F
330
1
100
AcDbSymbolTableRecord
100
AcDbBlockTableRecord
  2
*Model_Space
340
22
  0
BLOCK_RECORD
  5
1B
330
1
100
AcDbSymbolTableRecord
100
AcDbBlockTableRecord
  2
*Paper_Space
340
1E
  0
BLOCK_RECORD
  5
23
330
1
100
AcDbSymbolTableRecord
100
AcDbBlockTableRecord
  2
*Paper_Space0
340
26
  0
BLOCK_RECORD
  5
97
330
1
100
AcDbSymbolTableRecord
100
AcDbBlockTableRecord
  2
SW_CENTERMARKSYMBOL_0
340
0
102
{BLKREFS
331
A2
102
}
  0
BLOCK_RECORD
  5
AC
330
1
100
AcDbSymbolTableRecord
100
AcDbBlockTableRecord
  2
SW_CENTERMARKSYMBOL_1
340
0
102
{BLKREFS
331
B7
102
}
  0
BLOCK_RECORD
  5
BF
330
1
100
AcDbSymbolTableRecord
100
AcDbBlockTableRecord
  2
SW_CENTERMARKSYMBOL_2
340
0
102
{BLKREFS
331
CA
102
}
  0
BLOCK_RECORD
  5
D2
330
1
100
AcDbSymbolTableRecord
100
AcDbBlockTableRecord
  2
SW_CENTERMARKSYMBOL_3
340
0
102
{BLKREFS
331
DD
102
}
  0
ENDTAB
  0
ENDSEC
  0
SECTION
  2
BLOCKS
  0
BLOCK
  5
20
330
1F
100
AcDbEntity
  8
0
100
AcDbBlockBegin
  2
*Model_Space
 70
     0
 10
0.0
 20
0.0
 30
0.0
  3
*Model_Space
  1

  0
ENDBLK
  5
21
330
1F
100
AcDbEntity
  8
0
100
AcDbBlockEnd
  0
BLOCK
  5
1C
330
1B
100
AcDbEntity
 67
     1
  8
0
100
AcDbBlockBegin
  2
*Paper_Space
 70
     0
 10
0.0
 20
0.0
 30
0.0
  3
*Paper_Space
  1

  0
ENDBLK
  5
1D
330
1B
100
AcDbEntity
 67
     1
  8
0
100
AcDbBlockEnd
  0
BLOCK
  5
24
330
23
100
AcDbEntity
  8
0
100
AcDbBlockBegin
  2
*Paper_Space0
 70
     0
 10
0.0
 20
0.0
 30
0.0
  3
*Paper_Space0
  1

  0
ENDBLK
  5
25
330
23
100
AcDbEntity
  8
0
100
AcDbBlockEnd
  0
BLOCK
  5
98
330
97
100
AcDbEntity
  8
0
100
AcDbBlockBegin
  2
SW_CENTERMARKSYMBOL_0
 70
     0
 10
0.0
 20
0.0
 30
0.0
  3
SW_CENTERMARKSYMBOL_0
  1

  0
LINE
  5
9A
330
97
100
AcDbEntity
  8
FORMAT
 62
     0
100
AcDbLine
 10
0.0
 20
0.0
 30
0.0
 11
0.0
 21
2.5
 31
0.0
  0
LINE
  5
9B
330
97
100
AcDbEntity
  8
FORMAT
 62
     0
100
AcDbLine
 10
0.0
 20
0.0
 30
0.0
 11
-2.5
 21
0.0
 31
0.0
  0
LINE
  5
9C
330
97
100
AcDbEntity
  8
FORMAT
 62
     0
100
AcDbLine
 10
0.0
 20
0.0
 30
0.0
 11
0.0
 21
-2.5
 31
0.0
  0
LINE
  5
9D
330
97
100
AcDbEntity
  8
FORMAT
 62
     0
100
AcDbLine
 10
0.0
 20
0.0
 30
0.0
 11
2.5
 21
0.0
 31
0.0
  0
LINE
  5
9E
330
97
100
AcDbEntity
  8
FORMAT
 62
     0
100
AcDbLine
 10
0.0
 20
5.0
 30
0.0
 11
0.0
 21
202.5
 31
0.0
  0
LINE
  5
9F
330
97
100
AcDbEntity
  8
FORMAT
 62
     0
100
AcDbLine
 10
-5.0
 20
0.0
 30
0.0
 11
-202.5
 21
0.0
 31
0.0
  0
LINE
  5
A0
330
97
100
AcDbEntity
  8
FORMAT
 62
     0
100
AcDbLine
 10
0.0
 20
-5.0
 30
0.0
 11
0.0
 21
-202.5
 31
0.0
  0
LINE
  5
A1
330
97
100
AcDbEntity
  8
FORMAT
 62
     0
100
AcDbLine
 10
5.0
 20
0.0
 30
0.0
 11
202.5
 21
0.0
 31
0.0
  0
ENDBLK
  5
99
330
97
100
AcDbEntity
  8
0
100
AcDbBlockEnd
  0
BLOCK
  5
AD
330
AC
100
AcDbEntity
  8
0
100
AcDbBlockBegin
  2
SW_CENTERMARKSYMBOL_1
 70
     0
 10
0.0
 20
0.0
 30
0.0
  3
SW_CENTERMARKSYMBOL_1
  1

  0
LINE
  5
AF
330
AC
100
AcDbEntity
  8
FORMAT
 62
     0
100
AcDbLine
 10
0.0
 20
0.0
 30
0.0
 11
0.0
 21
2.5
 31
0.0
  0
LINE
  5
B0
330
AC
100
AcDbEntity
  8
FORMAT
 62
     0
100
AcDbLine
 10
0.0
 20
0.0
 30
0.0
 11
-2.5
 21
0.0
 31
0.0
  0
LINE
  5
B1
330
AC
100
AcDbEntity
  8
FORMAT
 62
     0
100
AcDbLine
 10
0.0
 20
0.0
 30
0.0
 11
0.0
 21
-2.5
 31
0.0
  0
LINE
  5
B2
330
AC
100
AcDbEntity
  8
FORMAT
 62
     0
100
AcDbLine
 10
0.0
 20
0.0
 30
0.0
 11
2.5
 21
0.0
 31
0.0
  0
LINE
  5
B3
330
AC
100
AcDbEntity
  8
FORMAT
 62
     0
100
AcDbLine
 10
0.0
 20
5.0
 30
0.0
 11
0.0
 21
202.5
 31
0.0
  0
LINE
  5
B4
330
AC
100
AcDbEntity
  8
FORMAT
 62
     0
100
AcDbLine
 10
-5.0
 20
0.0
 30
0.0
 11
-202.5
 21
0.0
 31
0.0
  0
LINE
  5
B5
330
AC
100
AcDbEntity
  8
FORMAT
 62
     0
100
AcDbLine
 10
0.0
 20
-5.0
 30
0.0
 11
0.0
 21
-202.5
 31
0.0
  0
LINE
  5
B6
330
AC
100
AcDbEntity
  8
FORMAT
 62
     0
100
AcDbLine
 10
5.0
 20
0.0
 30
0.0
 11
202.5
 21
0.0
 31
0.0
  0
ENDBLK
  5
AE
330
AC
100
AcDbEntity
  8
0
100
AcDbBlockEnd
  0
BLOCK
  5
C0
330
BF
100
AcDbEntity
  8
0
100
AcDbBlockBegin
  2
SW_CENTERMARKSYMBOL_2
 70
     0
 10
0.0
 20
0.0
 30
0.0
  3
SW_CENTERMARKSYMBOL_2
  1

  0
LINE
  5
C2
330
BF
100
AcDbEntity
  8
FORMAT
 62
     0
100
AcDbLine
 10
0.0
 20
0.0
 30
0.0
 11
0.0
 21
2.5
 31
0.0
  0
LINE
  5
C3
330
BF
100
AcDbEntity
  8
FORMAT
 62
     0
100
AcDbLine
 10
0.0
 20
0.0
 30
0.0
 11
-2.5
 21
0.0
 31
0.0
  0
LINE
  5
C4
330
BF
100
AcDbEntity
  8
FORMAT
 62
     0
100
AcDbLine
 10
0.0
 20
0.0
 30
0.0
 11
0.0
 21
-2.5
 31
0.0
  0
LINE
  5
C5
330
BF
100
AcDbEntity
  8
FORMAT
 62
     0
100
AcDbLine
 10
0.0
 20
0.0
 30
0.0
 11
2.5
 21
0.0
 31
0.0
  0
LINE
  5
C6
330
BF
100
AcDbEntity
  8
FORMAT
 62
     0
100
AcDbLine
 10
0.0
 20
5.0
 30
0.0
 11
0.0
 21
202.5
 31
0.0
  0
LINE
  5
C7
330
BF
100
AcDbEntity
  8
FORMAT
 62
     0
100
AcDbLine
 10
-5.0
 20
0.0
 30
0.0
 11
-202.5
 21
0.0
 31
0.0
  0
LINE
  5
C8
330
BF
100
AcDbEntity
  8
FORMAT
 62
     0
100
AcDbLine
 10
0.0
 20
-5.0
 30
0.0
 11
0.0
 21
-202.5
 31
0.0
  0
LINE
  5
C9
330
BF
100
AcDbEntity
  8
FORMAT
 62
     0
100
AcDbLine
 10
5.0
 20
0.0
 30
0.0
 11
202.5
 21
0.0
 31
0.0
  0
ENDBLK
  5
C1
330
BF
100
AcDbEntity
  8
0
100
AcDbBlockEnd
  0
BLOCK
  5
D3
330
D2
100
AcDbEntity
  8
0
100
AcDbBlockBegin
  2
SW_CENTERMARKSYMBOL_3
 70
     0
 10
0.0
 20
0.0
 30
0.0
  3
SW_CENTERMARKSYMBOL_3
  1

  0
LINE
  5
D5
330
D2
100
AcDbEntity
  8
FORMAT
 62
     0
100
AcDbLine
 10
0.0
 20
0.0
 30
0.0
 11
0.0
 21
2.5
 31
0.0
  0
LINE
  5
D6
330
D2
100
AcDbEntity
  8
FORMAT
 62
     0
100
AcDbLine
 10
0.0
 20
0.0
 30
0.0
 11
-2.5
 21
0.0
 31
0.0
  0
LINE
  5
D7
330
D2
100
AcDbEntity
  8
FORMAT
 62
     0
100
AcDbLine
 10
0.0
 20
0.0
 30
0.0
 11
0.0
 21
-2.5
 31
0.0
  0
LINE
  5
D8
330
D2
100
AcDbEntity
  8
FORMAT
 62
     0
100
AcDbLine
 10
0.0
 20
0.0
 30
0.0
 11
2.5
 21
0.0
 31
0.0
  0
LINE
  5
D9
330
D2
100
AcDbEntity
  8
FORMAT
 62
     0
100
AcDbLine
 10
0.0
 20
5.0
 30
0.0
 11
0.0
 21
202.5
 31
0.0
  0
LINE
  5
DA
330
D2
100
AcDbEntity
  8
FORMAT
 62
     0
100
AcDbLine
 10
-5.0
 20
0.0
 30
0.0
 11
-202.5
 21
0.0
 31
0.0
  0
LINE
  5
DB
330
D2
100
AcDbEntity
  8
FORMAT
 62
     0
100
AcDbLine
 10
0.0
 20
-5.0
 30
0.0
 11
0.0
 21
-202.5
 31
0.0
  0
LINE
  5
DC
330
D2
100
AcDbEntity
  8
FORMAT
 62
     0
100
AcDbLine
 10
5.0
 20
0.0
 30
0.0
 11
202.5
 21
0.0
 31
0.0
  0
ENDBLK
  5
D4
330
D2
100
AcDbEntity
  8
0
100
AcDbBlockEnd
  0
ENDSEC
  0
SECTION
  2
ENTITIES
  0
LINE
  5
83
330
1F
100
AcDbEntity
  8
0
  6
Continuous
 62
     7
370
    25
100
AcDbLine
 10
-160.1708035016
 20
66.2707682992
 30
0.0
 11
-160.1708035016
 21
-184.7292317008
 31
0.0
  0
LINE
  5
84
330
1F
100
AcDbEntity
  8
0
  6
Continuous
 62
     7
370
    25
100
AcDbLine
 10
239.8291964984
 20
-184.7292317008
 30
0.0
 11
239.8291964984
 21
66.2707682992
 31
0.0
  0
ARC
  5
85
330
1F
100
AcDbEntity
  8
0
  6
Continuous
 62
     7
370
    25
100
AcDbCircle
 10
239.8291964984
 20
66.2707682992
 30
0.0
 40
400.0000000000001
100
AcDbArc
 50
90.0
 51
180.0
  0
LINE
  5
86
330
1F
100
AcDbEntity
  8
0
  6
Continuous
 62
     7
370
    25
100
AcDbLine
 10
490.8291964984
 20
466.2707682992
 30
0.0
 11
239.8291964984
 21
466.2707682992
 31
0.0
  0
LINE
  5
87
330
1F
100
AcDbEntity
  8
0
  6
Continuous
 62
     7
370
    25
100
AcDbLine
 10
239.8291964984
 20
66.2707682992
 30
0.0
 11
490.8291964984
 21
66.2707682992
 31
0.0
  0
LINE
  5
88
330
1F
100
AcDbEntity
  8
0
  6
Continuous
 62
     7
370
    25
100
AcDbLine
 10
39.8291964984
 20
-184.7292317008
 30
0.0
 11
239.8291964984
 21
-184.7292317008
 31
0.0
  0
LINE
  5
89
330
1F
100
AcDbEntity
  8
0
  6
Continuous
 62
     7
370
    25
100
AcDbLine
 10
-160.1708035016
 20
-184.7292317008
 30
0.0
 11
39.8291964984
 21
-184.7292317008
 31
0.0
  0
LINE
  5
8A
330
1F
100
AcDbEntity
  8
0
  6
Continuous
 62
     7
370
    25
100
AcDbLine
 10
490.8291964984
 20
266.2707682992
 30
0.0
 11
490.8291964984
 21
66.2707682992
 31
0.0
  0
LINE
  5
8B
330
1F
100
AcDbEntity
  8
0
  6
Continuous
 62
     7
370
    25
100
AcDbLine
 10
490.8291964984
 20
466.2707682992
 30
0.0
 11
490.8291964984
 21
266.2707682992
 31
0.0
  0
LINE
  5
8C
330
1F
100
AcDbEntity
  8
0
  6
Continuous
 62
     1
370
    25
100
AcDbLine
 10
-160.1708035016
 20
66.2707682992
 30
0.0
 11
239.8291964984
 21
66.2707682992
 31
0.0
  0
LINE
  5
8D
330
1F
100
AcDbEntity
  8
0
  6
Continuous
 62
     1
370
    25
100
AcDbLine
 10
239.8291964984
 20
466.2707682992
 30
0.0
 11
239.8291964984
 21
66.2707682992
 31
0.0
  0
LINE
  5
8E
330
1F
100
AcDbEntity
  8
0
  6
Continuous
 62
     7
370
    25
100
AcDbLine
 10
-856.7318592724
 20
266.2707682992
 30
0.0
 11
-856.7318592724
 21
66.2707682992
 31
0.0
  0
LINE
  5
8F
330
1F
100
AcDbEntity
  8
0
  6
Continuous
 62
     7
370
    25
100
AcDbLine
 10
-456.7318592724
 20
66.2707682992
 30
0.0
 11
-456.7318592724
 21
266.2707682992
 31
0.0
  0
LINE
  5
90
330
1F
100
AcDbEntity
  8
0
  6
Continuous
 62
     7
370
    25
100
AcDbLine
 10
-856.7318592724
 20
66.2707682992
 30
0.0
 11
-856.7318592724
 21
-184.7292317008
 31
0.0
  0
LINE
  5
91
330
1F
100
AcDbEntity
  8
0
  6
Continuous
 62
     7
370
    25
100
AcDbLine
 10
-456.7318592724
 20
-184.7292317008
 30
0.0
 11
-456.7318592724
 21
66.2707682992
 31
0.0
  0
CIRCLE
  5
92
330
1F
100
AcDbEntity
  8
0
  6
Continuous
 62
     7
370
    25
100
AcDbCircle
 10
-656.7318592724
 20
266.2707682992
 30
0.0
 40
200.0000000000001
  0
CIRCLE
  5
93
330
1F
100
AcDbEntity
  8
0
  6
Continuous
 62
     7
370
    25
100
AcDbCircle
 10
-656.7318592724
 20
266.2707682992
 30
0.0
 40
163.7000000000002
  0
LINE
  5
94
330
1F
100
AcDbEntity
  8
0
  6
Continuous
 62
     7
370
    25
100
AcDbLine
 10
-856.7318592724
 20
-184.7292317008
 30
0.0
 11
-456.7318592724
 21
-184.7292317008
 31
0.0
  0
LINE
  5
95
330
1F
100
AcDbEntity
  8
0
  6
Continuous
 62
     1
370
    25
100
AcDbLine
 10
-656.7318592724
 20
66.2707682992
 30
0.0
 11
-456.7318592724
 21
66.2707682992
 31
0.0
  0
LINE
  5
96
330
1F
100
AcDbEntity
  8
0
  6
Continuous
 62
     1
370
    25
100
AcDbLine
 10
-856.7318592724
 20
66.2707682992
 30
0.0
 11
-656.7318592724
 21
66.2707682992
 31
0.0
  0
INSERT
  5
A2
330
1F
100
AcDbEntity
  8
FORMAT
 62
     7
100
AcDbBlockReference
  2
SW_CENTERMARKSYMBOL_0
 10
-656.7318592724
 20
266.2707682992
 30
0.0
  0
LINE
  5
A3
330
1F
100
AcDbEntity
  8
0
  6
Continuous
 62
     7
370
    25
100
AcDbLine
 10
490.8291964984
 20
1142.5947681852
 30
0.0
 11
239.8291964984
 21
1142.5947681852
 31
0.0
  0
LINE
  5
A4
330
1F
100
AcDbEntity
  8
0
  6
Continuous
 62
     7
370
    25
100
AcDbLine
 10
239.8291964984
 20
742.5947681852
 30
0.0
 11
490.8291964984
 21
742.5947681852
 31
0.0
  0
LINE
  5
A5
330
1F
100
AcDbEntity
  8
0
  6
Continuous
 62
     7
370
    25
100
AcDbLine
 10
239.8291964984
 20
1142.5947681852
 30
0.0
 11
39.8291964984
 21
1142.5947681852
 31
0.0
  0
LINE
  5
A6
330
1F
100
AcDbEntity
  8
0
  6
Continuous
 62
     7
370
    25
100
AcDbLine
 10
39.8291964984
 20
742.5947681852
 30
0.0
 11
239.8291964984
 21
742.5947681852
 31
0.0
  0
CIRCLE
  5
A7
330
1F
100
AcDbEntity
  8
0
  6
Continuous
 62
     7
370
    25
100
AcDbCircle
 10
39.8291964984
 20
942.5947681852
 30
0.0
 40
163.7000000000002
  0
CIRCLE
  5
A8
330
1F
100
AcDbEntity
  8
0
  6
Continuous
 62
     7
370
    25
100
AcDbCircle
 10
39.8291964984
 20
942.5947681852
 30
0.0
 40
199.9999999999999
  0
LINE
  5
A9
330
1F
100
AcDbEntity
  8
0
  6
Continuous
 62
     7
370
    25
100
AcDbLine
 10
490.8291964984
 20
1142.5947681852
 30
0.0
 11
490.8291964984
 21
742.5947681852
 31
0.0
  0
LINE
  5
AA
330
1F
100
AcDbEntity
  8
0
  6
Continuous
 62
     1
370
    25
100
AcDbLine
 10
239.8291964984
 20
942.5947681852
 30
0.0
 11
239.8291964984
 21
742.5947681852
 31
0.0
  0
LINE
  5
AB
330
1F
100
AcDbEntity
  8
0
  6
Continuous
 62
     1
370
    25
100
AcDbLine
 10
239.8291964984
 20
1142.5947681852
 30
0.0
 11
239.8291964984
 21
942.5947681852
 31
0.0
  0
INSERT
  5
B7
330
1F
100
AcDbEntity
  8
FORMAT
 62
     7
100
AcDbBlockReference
  2
SW_CENTERMARKSYMBOL_1
 10
39.8291964984
 20
942.5947681852
 30
0.0
  0
LINE
  5
B8
330
1F
100
AcDbEntity
  8
0
  6
Continuous
 62
     7
370
    25
100
AcDbLine
 10
786.2479835151
 20
66.2707682992
 30
0.0
 11
786.2479835151
 21
-184.7292317008
 31
0.0
  0
LINE
  5
B9
330
1F
100
AcDbEntity
  8
0
  6
Continuous
 62
     7
370
    25
100
AcDbLine
 10
1186.2479835151
 20
-184.7292317008
 30
0.0
 11
1186.2479835151
 21
66.2707682992
 31
0.0
  0
LINE
  5
BA
330
1F
100
AcDbEntity
  8
0
  6
Continuous
 62
     7
370
    25
100
AcDbLine
 10
1186.2479835151
 20
66.2707682992
 30
0.0
 11
1186.2479835151
 21
266.2707682992
 31
0.0
  0
LINE
  5
BB
330
1F
100
AcDbEntity
  8
0
  6
Continuous
 62
     7
370
    25
100
AcDbLine
 10
786.2479835151
 20
266.2707682992
 30
0.0
 11
786.2479835151
 21
66.2707682992
 31
0.0
  0
LINE
  5
BC
330
1F
100
AcDbEntity
  8
0
  6
Continuous
 62
     7
370
    25
100
AcDbLine
 10
786.2479835151
 20
-184.7292317008
 30
0.0
 11
1186.2479835151
 21
-184.7292317008
 31
0.0
  0
ARC
  5
BD
330
1F
100
AcDbEntity
  8
0
  6
Continuous
 62
     7
370
    25
100
AcDbCircle
 10
986.2479835151
 20
266.2707682992
 30
0.0
 40
200.0000000000001
100
AcDbArc
 50
0.0
 51
180.0
  0
LINE
  5
BE
330
1F
100
AcDbEntity
  8
0
  6
Continuous
 62
     1
370
    25
100
AcDbLine
 10
786.2479835151
 20
66.2707682992
 30
0.0
 11
1186.2479835151
 21
66.2707682992
 31
0.0
  0
INSERT
  5
CA
330
1F
100
AcDbEntity
  8
FORMAT
 62
     7
100
AcDbBlockReference
  2
SW_CENTERMARKSYMBOL_2
 10
986.2479835151
 20
266.2707682992
 30
0.0
  0
LINE
  5
CB
330
1F
100
AcDbEntity
  8
0
  6
Continuous
 62
     7
370
    25
100
AcDbLine
 10
39.8291964984
 20
-802.7047306701
 30
0.0
 11
239.8291964984
 21
-802.7047306701
 31
0.0
  0
LINE
  5
CC
330
1F
100
AcDbEntity
  8
0
  6
Continuous
 62
     7
370
    25
100
AcDbLine
 10
239.8291964984
 20
-402.7047306701
 30
0.0
 11
39.8291964984
 21
-402.7047306701
 31
0.0
  0
LINE
  5
CD
330
1F
100
AcDbEntity
  8
0
  6
Continuous
 62
     7
370
    25
100
AcDbLine
 10
490.8291964984
 20
-402.7047306701
 30
0.0
 11
239.8291964984
 21
-402.7047306701
 31
0.0
  0
LINE
  5
CE
330
1F
100
AcDbEntity
  8
0
  6
Continuous
 62
     7
370
    25
100
AcDbLine
 10
239.8291964984
 20
-802.7047306701
 30
0.0
 11
490.8291964984
 21
-802.7047306701
 31
0.0
  0
ARC
  5
CF
330
1F
100
AcDbEntity
  8
0
  6
Continuous
 62
     7
370
    25
100
AcDbCircle
 10
39.8291964984
 20
-602.7047306701
 30
0.0
 40
200.0000000000001
100
AcDbArc
 50
90.0
 51
270.0
  0
LINE
  5
D0
330
1F
100
AcDbEntity
  8
0
  6
Continuous
 62
     7
370
    25
100
AcDbLine
 10
490.8291964984
 20
-402.7047306701
 30
0.0
 11
490.8291964984
 21
-802.7047306701
 31
0.0
  0
LINE
  5
D1
330
1F
100
AcDbEntity
  8
0
  6
Continuous
 62
     1
370
    25
100
AcDbLine
 10
239.8291964984
 20
-402.7047306701
 30
0.0
 11
239.8291964984
 21
-802.7047306701
 31
0.0
  0
INSERT
  5
DD
330
1F
100
AcDbEntity
  8
FORMAT
 62
     7
100
AcDbBlockReference
  2
SW_CENTERMARKSYMBOL_3
 10
39.8291964984
 20
-602.7047306701
 30
0.0
  0
LINE
  5
DE
330
1F
100
AcDbEntity
  8
0
  6
Continuous
 62
     7
370
    25
100
AcDbLine
 10
1209.4596054152
 20
-281.3811971155
 30
0.0
 11
1031.9758033374
 21
-383.8404151492
 31
0.0
  0
LINE
  5
DF
330
1F
100
AcDbEntity
  8
0
  6
Continuous
 62
     7
370
    25
100
AcDbLine
 10
1231.9595498646
 20
-730.2599601015
 30
0.0
 11
1409.4433519424
 21
-627.8007420678
 31
0.0
  0
LINE
  5
E0
330
1F
100
AcDbEntity
  8
0
  6
Continuous
 62
     7
370
    25
100
AcDbLine
 10
790.5463203637
 20
-801.9991611848
 30
0.0
 11
790.5463203637
 21
-1006.9509049681
 31
0.0
  0
LINE
  5
E1
330
1F
100
AcDbEntity
  8
0
  6
Continuous
 62
     7
370
    25
100
AcDbLine
 10
1190.5463203637
 20
-1006.9509049681
 30
0.0
 11
1190.5463203637
 21
-801.9991611848
 31
0.0
  0
SPLINE
  5
E2
330
1F
100
AcDbEntity
  8
0
  6
Continuous
 62
     7
370
    25
100
AcDbSpline
210
0.0
220
0.0
230
1.0
 70
     8
 71
     3
 72
    53
 73
    49
 74
     0
 42
0.00000001
 43
0.00000001
 40
0.0
 40
0.0
 40
0.0
 40
0.0
 40
0.0143968395609096
 40
0.0365613967094063
 40
0.0587620225393564
 40
0.0810443474445084
 40
0.1033886077709893
 40
0.1257759116945109
 40
0.1481884185144732
 40
0.1706055742750911
 40
0.1930133819714495
 40
0.2154008076077765
 40
0.2377592509177048
 40
0.2600824959027832
 40
0.2823665708913638
 40
0.3046095506219723
 40
0.3268113269687473
 40
0.348973369439169
 40
0.3710984906540435
 40
0.3931906265848776
 40
0.4152546368282278
 40
0.4372961267610209
 40
0.4593212909637014
 40
0.481336775643181
 40
0.5033495567337619
 40
0.5253668297169287
 40
0.5473943241070887
 40
0.5694385313028671
 40
0.5915067431138249
 40
0.6136060929648404
 40
0.6357434407368695
 40
0.6579252434145403
 40
0.6801574069942008
 40
0.7024451156620386
 40
0.7247926351760521
 40
0.7472030889605392
 40
0.7696782078959847
 40
0.7922180584083416
 40
0.8148207584064624
 40
0.8374821968711065
 40
0.8601957801005525
 40
0.8829522348698611
 40
0.9057395045090944
 40
0.9285398947303174
 40
0.9513326140264715
 40
0.9740975283995739
 40
0.9952747181880834
 40
1.0
 40
1.0
 40
1.0
 40
1.0
 10
1031.975803337403
 20
-383.840415149248
 30
0.0
 10
1029.956887443024
 20
-385.0204060829211
 30
0.0
 10
1024.829763213778
 20
-388.0170440920479
 30
0.0
 10
1016.702721738313
 20
-393.071774146684
 30
0.0
 10
1007.609344641028
 20
-399.051600703047
 30
0.0
 10
998.627968002747
 20
-405.3090917412362
 30
0.0
 10
989.7587954371868
 20
-411.8352165281379
 30
0.0
 10
981.0134449486278
 20
-418.6212230454
 30
0.0
 10
972.4024642023282
 20
-425.6556279053174
 30
0.0
 10
963.9356826743136
 20
-432.9271482956738
 30
0.0
 10
955.6217482647272
 20
-440.4243908680773
 30
0.0
 10
947.4676689938506
 20
-448.1367599524294
 30
0.0
 10
939.4794080589422
 20
-456.0541076118373
 30
0.0
 10
931.6620488477658
 20
-464.1667818018665
 30
0.0
 10
924.0199036467188
 20
-472.4656834187718
 30
0.0
 10
916.5566375854423
 20
-480.9422929157685
 30
0.0
 10
909.2753948382978
 20
-489.588668892389
 30
0.0
 10
902.1789201812447
 20
-498.3974273981198
 30
0.0
 10
895.269670890469
 20
-507.3617081448156
 30
0.0
 10
888.5499164708231
 20
-516.4751330856277
 30
0.0
 10
882.0218253956115
 20
-525.7317613654585
 30
0.0
 10
875.6875392732107
 20
-535.1260434199625
 30
0.0
 10
869.5492356120866
 20
-544.6527758889379
 30
0.0
 10
863.6091807540215
 20
-554.3070581072329
 30
0.0
 10
857.8697746904227
 20
-564.0842501932246
 30
0.0
 10
852.3337220420202
 20
-573.9796951523757
 30
0.0
 10
847.0039778997241
 20
-583.9887765082902
 30
0.0
 10
841.883692565257
 20
-594.1070072542838
 30
0.0
 10
836.9761253866279
 20
-604.3302416071087
 30
0.0
 10
832.284745316138
 20
-614.6545278905253
 30
0.0
 10
827.8133235480084
 20
-625.075925393155
 30
0.0
 10
823.5659552059994
 20
-635.5904422736045
 30
0.0
 10
819.5470782645785
 20
-646.1939632129762
 30
0.0
 10
815.7614885229392
 20
-656.8821648615224
 30
0.0
 10
812.214348796571
 20
-667.650417547761
 30
0.0
 10
808.9111898154713
 20
-678.4936724683847
 30
0.0
 10
805.8578995534675
 20
-689.4063348035677
 30
0.0
 10
803.0606973356163
 20
-700.382124974198
 30
0.0
 10
800.5260877628976
 20
-711.4139327993106
 30
0.0
 10
798.2607929099145
 20
-722.4936720145135
 30
0.0
 10
796.2716491846206
 20
-733.6121474258167
 30
0.0
 10
794.5655045370349
 20
-744.7589453329495
 30
0.0
 10
793.1490354669731
 20
-755.9219086964579
 30
0.0
 10
792.0288358222249
 20
-767.0870142967781
 30
0.0
 10
791.2098777108401
 20
-778.2390464261076
 30
0.0
 10
790.7113513998615
 20
-789.1111632274734
 30
0.0
 10
790.555636175178
 20
-797.0259323834724
 30
0.0
 10
790.5477576168324
 20
-801.2318862467757
 30
0.0
 10
790.5463203636997
 20
-801.9991611848053
 30
0.0
  0
SPLINE
  5
E3
330
1F
100
AcDbEntity
  8
0
  6
Continuous
 62
     7
370
    25
100
AcDbSpline
210
0.0
220
0.0
230
1.0
 70
     8
 71
     3
 72
    43
 73
    39
 74
     0
 42
0.00000001
 43
0.00000001
 40
0.0
 40
0.0
 40
0.0
 40
0.0
 40
0.0292540134030468
 40
0.0578432461654605
 40
0.0858915390825195
 40
0.1135148231068782
 40
0.1408199448617133
 40
0.1679036354185904
 40
0.1948516281521458
 40
0.2217379511279292
 40
0.2486244309368235
 40
0.275558679047301
 40
0.3025662214739457
 40
0.3296759369074874
 40
0.35690507172653
 40
0.3842602100772061
 40
0.4117384279983461
 40
0.4393286800025053
 40
0.4670133795701513
 40
0.4947701329477892
 40
0.5225735866582722
 40
0.5503922334935452
 40
0.5781969991958724
 40
0.6059663162891124
 40
0.6336841471454742
 40
0.6613418250437325
 40
0.6889397631329052
 40
0.7164889743566059
 40
0.7440123470002719
 40
0.7715456244375581
 40
0.7991355298332833
 40
0.8268273979147426
 40
0.8546927866470101
 40
0.8828164395298241
 40
0.9112954837486681
 40
0.9402384503485606
 40
0.969764086095011
 40
1.0
 40
1.0
 40
1.0
 40
1.0
 10
1190.548882299334
 20
-802.0985703960359
 30
0.0
 10
1190.555748748262
 20
-801.9905889568566
 30
0.0
 10
1190.569325610013
 20
-801.7770798946399
 30
0.0
 10
1190.636848641811
 20
-801.0830491447241
 30
0.0
 10
1190.758151968454
 20
-800.1302563145836
 30
0.0
 10
1190.94904498094
 20
-798.9037790411643
 30
0.0
 10
1191.2215384028
 20
-797.422061301758
 30
0.0
 10
1191.587159211901
 20
-795.6958030228838
 30
0.0
 10
1192.056028831616
 20
-793.7390013875265
 30
0.0
 10
1192.63698959219
 20
-791.5663493990888
 30
0.0
 10
1193.337387563757
 20
-789.1942524387741
 30
0.0
 10
1194.162805006005
 20
-786.6411205396456
 30
0.0
 10
1195.116954002464
 20
-783.9271148530887
 30
0.0
 10
1196.201556731126
 20
-781.0739938406398
 30
0.0
 10
1197.416398086141
 20
-778.1046114609145
 30
0.0
 10
1198.759031450489
 20
-775.0432783169622
 30
0.0
 10
1200.224681915538
 20
-771.915545411125
 30
0.0
 10
1201.806196429782
 20
-768.7479126638405
 30
0.0
 10
1203.494048586762
 20
-765.5674732233002
 30
0.0
 10
1205.276401625181
 20
-762.4015092427181
 30
0.0
 10
1207.139116142685
 20
-759.2772476722132
 30
0.0
 10
1209.065941776575
 20
-756.2213323047117
 30
0.0
 10
1211.038860097389
 20
-753.259171469404
 30
0.0
 10
1213.038529162258
 20
-750.4143041082776
 30
0.0
 10
1215.044596466444
 20
-747.7080801214748
 30
0.0
 10
1217.035938598393
 20
-745.1594927630341
 30
0.0
 10
1218.990990356107
 20
-742.7849377965128
 30
0.0
 10
1220.88805561144
 20
-740.5980517260931
 30
0.0
 10
1222.705583309327
 20
-738.6096336735334
 30
0.0
 10
1224.422333971075
 20
-736.8277087433818
 30
0.0
 10
1226.017276182118
 20
-735.2578564312562
 30
0.0
 10
1227.470020961408
 20
-733.9029265783269
 30
0.0
 10
1228.761154135588
 20
-732.7630203103922
 30
0.0
 10
1229.87174423117
 20
-731.8360142082363
 30
0.0
 10
1230.785462396328
 20
-731.11643788567
 30
0.0
 10
1231.478973697472
 20
-730.6018392325309
 30
0.0
 10
1231.957895996992
 20
-730.2694701070325
 30
0.0
 10
1232.062782276217
 20
-730.202006804507
 30
0.0
 10
1232.115848713198
 20
-730.1678742457162
 30
0.0
  0
LWPOLYLINE
  5
E4
330
1F
100
AcDbEntity
  8
0
  6
Continuous
 62
     7
370
    25
100
AcDbPolyline
 90
      151
 70
   128
 43
0.0
 10
1168.0301224415
 20
-372.9501584094
 10
1168.1541729986
 20
-379.8604073305
 10
1168.526107043
 20
-386.9017590514
 10
1169.145272076
 20
-394.0618606486
 10
1170.0105818717
 20
-401.3281508708
 10
1171.1205183828
 20
-408.6878821759
 10
1172.4731344034
 20
-416.1281430943
 10
1174.0660569854
 20
-423.6358808801
 10
1175.8964916014
 20
-431.1979244101
 10
1177.961227047
 20
-438.8010072904
 10
1180.2566410746
 20
-446.43179113
 10
1182.7787067481
 20
-454.0768889411
 10
1185.5229995072
 20
-461.7228886244
 10
1188.48470493
 20
-469.3563764983
 10
1191.6586271787
 20
-476.9639608311
 10
1195.0391981153
 20
-484.5322953349
 10
1198.6204870695
 20
-492.0481025792
 10
1202.3962112436
 20
-499.4981972842
 10
1206.3597467344
 20
-506.8695094523
 10
1210.5041401539
 20
-514.1491072971
 10
1214.8221208277
 20
-521.3242199304
 10
1219.3061135504
 20
-528.3822597665
 10
1223.9482518751
 20
-535.3108446051
 10
1228.7403919139
 20
-542.0978193542
 10
1233.6741266246
 20
-548.7312773538
 10
1238.7408005602
 20
-555.1995812645
 10
1243.9315250528
 20
-561.4913834832
 10
1249.2371938079
 20
-567.595646051
 10
1254.6484988797
 20
-573.501660017
 10
1260.1559470002
 20
-579.1990642259
 10
1265.749876234
 20
-584.6778634947
 10
1271.4204729283
 20
-589.9284461478
 10
1277.1577889298
 20
-594.941600879
 10
1282.9517590366
 20
-599.7085329115
 10
1288.7922186563
 20
-604.2208794266
 10
1294.6689216381
 20
-608.4707242353
 10
1300.5715582482
 20
-612.4506116656
 10
1306.489773256
 20
-616.1535596427
 10
1312.4131841016
 20
-619.5730719375
 10
1318.3313991095
 20
-622.7031495635
 10
1324.2340357195
 20
-625.5383013009
 10
1330.1107387014
 20
-628.0735533302
 10
1335.9511983211
 20
-630.3044579578
 10
1341.7451684279
 20
-632.227101419
 10
1347.4824844293
 20
-633.8381107438
 10
1353.1530811237
 20
-635.1346596745
 10
1358.7470103575
 20
-636.1144736236
 10
1364.254458478
 20
-636.7758336645
 10
1369.6657635497
 20
-637.117579547
 10
1374.9714323049
 20
-637.1391117327
 10
1380.1621567975
 20
-636.8403924467
 10
1385.2288307331
 20
-636.2219457444
 10
1390.1625654438
 20
-635.2848565912
 10
1394.9547054825
 20
-634.03076896
 10
1399.5968438073
 20
-632.4618829467
 10
1404.08083653
 20
-630.5809509105
 10
1408.3988172038
 20
-628.3912726452
 10
1412.5432106232
 20
-625.8966895906
 10
1416.506746114
 20
-623.101578093
 10
1420.2824702882
 20
-620.0108417279
 10
1423.8637592424
 20
-616.6299026969
 10
1427.2443301789
 20
-612.9646923161
 10
1430.4182524277
 20
-609.0216406099
 10
1433.3799578504
 20
-604.8076650308
 10
1436.1242506096
 20
-600.330158324
 10
1438.6463162831
 20
-595.5969755576
 10
1440.9417303107
 20
-590.6164203426
 10
1443.0064657563
 20
-585.3972302652
 10
1444.8369003722
 20
-579.9485615583
 10
1446.4298229543
 20
-574.2799730383
 10
1447.7824389749
 20
-568.4014093357
 10
1448.892375486
 20
-562.3231834487
 10
1449.7576852817
 20
-556.055958651
 10
1450.3768503147
 20
-549.6107297844
 10
1450.7487843591
 20
-542.9988039705
 10
1450.8728349161
 20
-536.2317807739
 10
1450.7487843591
 20
-529.3215318528
 10
1450.3768503147
 20
-522.2801801318
 10
1449.7576852817
 20
-515.1200785346
 10
1448.892375486
 20
-507.8537883124
 10
1447.7824389749
 20
-500.4940570074
 10
1446.4298229543
 20
-493.053796089
 10
1444.8369003722
 20
-485.5460583032
 10
1443.0064657563
 20
-477.9840147732
 10
1440.9417303107
 20
-470.3809318929
 10
1438.6463162831
 20
-462.7501480533
 10
1436.1242506096
 20
-455.1050502422
 10
1433.3799578504
 20
-447.4590505589
 10
1430.4182524277
 20
-439.825562685
 10
1427.2443301789
 20
-432.2179783522
 10
1423.8637592424
 20
-424.6496438484
 10
1420.2824702882
 20
-417.1338366041
 10
1416.506746114
 20
-409.683741899
 10
1412.5432106232
 20
-402.3124297309
 10
1408.3988172038
 20
-395.0328318861
 10
1404.08083653
 20
-387.8577192529
 10
1399.5968438073
 20
-380.7996794168
 10
1394.9547054825
 20
-373.8710945781
 10
1390.1625654438
 20
-367.084119829
 10
1385.2288307331
 20
-360.4506618295
 10
1380.1621567975
 20
-353.9823579188
 10
1374.9714323049
 20
-347.6905557
 10
1369.6657635497
 20
-341.5862931323
 10
1364.254458478
 20
-335.6802791662
 10
1358.7470103575
 20
-329.9828749573
 10
1353.1530811237
 20
-324.5040756885
 10
1347.4824844293
 20
-319.2534930355
 10
1341.7451684278
 20
-314.2403383043
 10
1335.9511983211
 20
-309.4734062718
 10
1330.1107387014
 20
-304.9610597567
 10
1324.2340357195
 20
-300.711214948
 10
1318.3313991095
 20
-296.7313275177
 10
1312.4131841016
 20
-293.0283795406
 10
1306.489773256
 20
-289.6088672458
 10
1300.5715582481
 20
-286.4787896198
 10
1294.6689216381
 20
-283.6436378824
 10
1288.7922186563
 20
-281.1083858531
 10
1282.9517590366
 20
-278.8774812254
 10
1277.1577889298
 20
-276.9548377642
 10
1271.4204729283
 20
-275.3438284394
 10
1265.7498762339
 20
-274.0472795088
 10
1260.1559470002
 20
-273.0674655597
 10
1254.6484988797
 20
-272.4061055188
 10
1249.2371938079
 20
-272.0643596363
 10
1243.9315250528
 20
-272.0428274506
 10
1238.7408005602
 20
-272.3415467365
 10
1233.6741266246
 20
-272.9599934389
 10
1228.7403919139
 20
-273.8970825921
 10
1223.9482518751
 20
-275.1511702232
 10
1219.3061135504
 20
-276.7200562365
 10
1214.8221208277
 20
-278.6009882728
 10
1210.5041401539
 20
-280.7906665381
 10
1206.3597467344
 20
-283.2852495927
 10
1202.3962112436
 20
-286.0803610903
 10
1198.6204870695
 20
-289.1710974554
 10
1195.0391981153
 20
-292.5520364863
 10
1191.6586271787
 20
-296.2172468671
 10
1188.48470493
 20
-300.1602985734
 10
1185.5229995072
 20
-304.3742741524
 10
1182.7787067481
 20
-308.8517808593
 10
1180.2566410746
 20
-313.5849636257
 10
1177.961227047
 20
-318.5655188407
 10
1175.8964916014
 20
-323.7847089181
 10
1174.0660569854
 20
-329.2333776249
 10
1172.4731344034
 20
-334.9019661449
 10
1171.1205183828
 20
-340.7805298476
 10
1170.0105818717
 20
-346.8587557345
 10
1169.145272076
 20
-353.1259805323
 10
1168.526107043
 20
-359.5712093989
 10
1168.1541729986
 20
-366.1831352128
 10
1168.0301224415
 20
-372.9501584094
  0
LWPOLYLINE
  5
E5
330
1F
100
AcDbEntity
  8
0
  6
Continuous
 62
     7
370
    25
100
AcDbPolyline
 90
      136
 70
   128
 43
0.0
 10
1193.6980985986
 20
-387.7679656389
 10
1193.8234466214
 20
-381.6213946011
 10
1194.199219214
 20
-375.632859414
 10
1194.8246025365
 20
-369.8153299115
 10
1195.6982421479
 20
-364.1814055668
 10
1196.8182459395
 20
-358.7432882058
 10
1198.1821882323
 20
-353.5127555795
 10
1199.7871150311
 20
-348.501135857
 10
1201.6295504219
 20
-343.7192830905
 10
1203.7055040998
 20
-339.1775537085
 10
1206.0104800114
 20
-334.8857840853
 10
1208.5394860922
 20
-330.8532692384
 10
1211.2870450781
 20
-327.0887426968
 10
1214.2472063683
 20
-323.6003575869
 10
1217.4135589125
 20
-320.395668974
 10
1220.7792450961
 20
-317.4816175001
 10
1224.3369755925
 20
-314.8645143516
 10
1228.0790451494
 20
-312.5500275913
 10
1231.9973492777
 20
-310.5431698822
 10
1236.0834018029
 20
-308.848287631
 10
1240.3283532453
 20
-307.4690515755
 10
1244.7230099852
 20
-306.4084488337
 10
1249.2578541748
 20
-305.668776435
 10
1253.9230643513
 20
-305.2516363451
 10
1258.7085367083
 20
-305.1579319966
 10
1263.6039069784
 20
-305.3878663323
 10
1268.5985728796
 20
-305.9409413655
 10
1273.6817170777
 20
-306.8159592588
 10
1278.8423306143
 20
-308.0110249185
 10
1284.0692367497
 20
-309.5235500983
 10
1289.3511151691
 20
-311.3502590055
 10
1294.6765265
 20
-313.4871953955
 10
1300.0339370872
 20
-315.9297311398
 10
1305.4117439724
 20
-318.6725762499
 10
1310.7983000235
 20
-321.7097903341
 10
1316.1819391594
 20
-325.034795463
 10
1321.5510016167
 20
-328.6403904158
 10
1326.8938592015
 20
-332.5187662769
 10
1332.1989404742
 20
-336.6615233476
 10
1337.4547558099
 20
-341.0596893387
 10
1342.6499222831
 20
-345.7037388021
 10
1347.7731883199
 20
-350.5836137606
 10
1352.8134580671
 20
-355.6887454918
 10
1357.7598154226
 20
-361.0080774172
 10
1362.6015476778
 20
-366.5300890482
 10
1367.328168719
 20
-372.2428209374
 10
1371.9294417373
 20
-378.1339005795
 10
1376.3954014
 20
-384.1905692079
 10
1380.716375433
 20
-390.3997094269
 10
1384.8830055686
 20
-396.7478736216
 10
1388.8862678139
 20
-403.2213130818
 10
1392.7174919943
 20
-409.8060077791
 10
1396.3683805312
 20
-416.4876967311
 10
1399.8310264131
 20
-423.2519088875
 10
1403.0979303201
 20
-430.0839944708
 10
1406.1620168657
 20
-436.9691567051
 10
1409.0166499209
 20
-443.8924838621
 10
1411.655646986
 20
-450.8389815569
 10
1414.073292581
 20
-457.7936052223
 10
1416.2643506241
 20
-464.7412926921
 10
1418.2240757713
 20
-471.6669968223
 10
1419.9482236943
 20
-478.55571808
 10
1421.4330602727
 20
-485.3925370288
 10
1422.6753696811
 20
-492.1626466414
 10
1423.672461354
 20
-498.8513843678
 10
1424.4221758128
 20
-505.4442638916
 10
1424.9228893429
 20
-511.9270065038
 10
1425.1735175104
 20
-518.2855720275
 10
1425.1735175104
 20
-524.5061892257
 10
1424.9228893429
 20
-530.5753856266
 10
1424.4221758128
 20
-536.4800167023
 10
1423.672461354
 20
-542.2072943369
 10
1422.6753696811
 20
-547.7448145222
 10
1421.4330602727
 20
-553.0805842225
 10
1419.9482236943
 20
-558.203047349
 10
1418.2240757713
 20
-563.1011097871
 10
1416.2643506241
 20
-567.7641634242
 10
1414.073292581
 20
-572.1821091246
 10
1411.655646986
 20
-576.3453786016
 10
1409.0166499209
 20
-580.2449551406
 10
1406.1620168657
 20
-583.8723931271
 10
1403.0979303201
 20
-587.2198363383
 10
1399.8310264131
 20
-590.2800349575
 10
1396.3683805312
 20
-593.046361276
 10
1392.7174919943
 20
-595.5128240469
 10
1388.8862678139
 20
-597.6740814611
 10
1384.8830055686
 20
-599.5254527164
 10
1380.716375433
 20
-601.0629281547
 10
1376.3954014
 20
-602.2831779468
 10
1371.9294417373
 20
-603.1835593033
 10
1367.328168719
 20
-603.7621221985
 10
1362.6015476778
 20
-604.0176135943
 10
1357.7598154226
 20
-603.949480153
 10
1352.8134580671
 20
-603.5578694365
 10
1347.7731883199
 20
-602.8436295865
 10
1342.6499222831
 20
-601.8083074874
 10
1337.4547558099
 20
-600.4541454163
 10
1332.1989404742
 20
-598.7840761868
 10
1326.8938592015
 20
-596.8017167969
 10
1321.5510016167
 20
-594.5113605956
 10
1316.1819391594
 20
-591.9179679845
 10
1310.7983000235
 20
-589.0271556744
 10
1305.4117439724
 20
-585.8451845211
 10
1300.0339370872
 20
-582.3789459656
 10
1294.6765265
 20
-578.6359471087
 10
1289.3511151691
 20
-574.6242944525
 10
1284.0692367497
 20
-570.3526763433
 10
1278.8423306143
 20
-565.8303441547
 10
1273.6817170777
 20
-561.0670922513
 10
1268.5985728796
 20
-556.073236776
 10
1263.6039069784
 20
-550.8595933078
 10
1258.7085367083
 20
-545.4374534374
 10
1253.9230643513
 20
-539.8185603124
 10
1249.2578541748
 20
-534.0150832041
 10
1244.7230099852
 20
-528.0395911517
 10
1240.3283532453
 20
-521.9050257403
 10
1236.0834018029
 20
-515.6246730726
 10
1231.9973492777
 20
-509.2121349939
 10
1228.0790451494
 20
-502.6812996339
 10
1224.3369755925
 20
-496.0463113276
 10
1220.7792450961
 20
-489.3215399823
 10
1217.4135589125
 20
-482.5215499551
 10
1214.2472063683
 20
-475.6610685105
 10
1211.2870450781
 20
-468.7549539234
 10
1208.5394860922
 20
-461.8181633002
 10
1206.0104800114
 20
-454.8657201848
 10
1203.7055040998
 20
-447.9126820208
 10
1201.6295504219
 20
-440.9741075405
 10
1199.7871150311
 20
-434.0650241513
 10
1198.1821882323
 20
-427.2003953893
 10
1196.8182459395
 20
-420.3950885117
 10
1195.6982421479
 20
-413.6638422979
 10
1194.8246025365
 20
-407.0212351283
 10
1194.199219214
 20
-400.4816534109
 10
1193.8234466214
 20
-394.0592604234
 10
1193.6980985986
 20
-387.7679656389
  0
LWPOLYLINE
  5
E6
330
1F
100
AcDbEntity
  8
0
  6
Continuous
 62
     7
370
    25
100
AcDbPolyline
 90
      151
 70
   128
 43
0.0
 10
849.1249641264
 20
-925.3100937859
 10
855.1711264272
 20
-921.9629443089
 10
861.4547828189
 20
-918.764892594
 10
867.9649096331
 20
-915.7215491107
 10
874.6900858952
 20
-912.8382529174
 10
881.6185133607
 20
-910.1200622956
 10
888.7380372136
 20
-907.5717458751
 10
896.0361673899
 20
-905.197774269
 10
903.5001004892
 20
-903.00231223
 10
911.1167422367
 20
-900.9892113447
 10
918.8727304546
 20
-899.162003276
 10
926.7544585041
 20
-897.5238935679
 10
934.7480991559
 20
-896.0777560212
 10
942.839628848
 20
-894.8261276528
 10
951.0148522879
 20
-893.771204244
 10
959.2594273557
 20
-892.914836489
 10
967.5588902651
 20
-892.2585267478
 10
975.8986809382
 20
-891.8034264108
 10
984.2641685481
 20
-891.5503338785
 10
992.6406771869
 20
-891.4996931613
 10
1001.0135116123
 20
-891.6515931002
 10
1009.3679830274
 20
-892.0057672111
 10
1017.6894348506
 20
-892.5615941522
 10
1025.9632684276
 20
-893.3180988143
 10
1034.174968643
 20
-894.273954031
 10
1042.3101293842
 20
-895.4274829076
 10
1050.3544788149
 20
-896.7766617623
 10
1058.2939044128
 20
-898.3191236772
 10
1066.1144777274
 20
-900.0521626497
 10
1073.8024788158
 20
-901.9727383407
 10
1081.3444203116
 20
-904.0774814077
 10
1088.7270710867
 20
-906.3626994163
 10
1095.937479463
 20
-908.8243833176
 10
1102.9629959341
 20
-911.4582144815
 10
1109.7912953568
 20
-914.2595722731
 10
1116.4103985737
 20
-917.2235421589
 10
1122.8086934284
 20
-920.3449243287
 10
1128.9749551378
 20
-923.6182428175
 10
1134.8983659834
 20
-927.0377551123
 10
1140.5685342898
 20
-930.5974622266
 10
1145.9755126551
 20
-934.2911192245
 10
1151.1098154019
 20
-938.1122461767
 10
1155.9624352186
 20
-942.0541395278
 10
1160.5248589611
 20
-946.1098838576
 10
1164.7890825877
 20
-950.2723640124
 10
1168.7476252014
 20
-954.5342775875
 10
1172.3935421731
 20
-958.8881477383
 10
1175.7204373257
 20
-963.3263362971
 10
1178.7224741545
 20
-967.8410571731
 10
1181.394386067
 20
-972.4243900118
 10
1183.7314856215
 20
-977.0682940898
 10
1185.7296727514
 20
-981.7646224216
 10
1187.3854419575
 20
-986.5051360513
 10
1188.695888458
 20
-991.2815185071
 10
1189.6587132843
 20
-996.0853903914
 10
1190.2722273146
 20
-1000.9083240803
 10
1190.5353542368
 20
-1005.7418585093
 10
1190.4476324368
 20
-1010.5775140167
 10
1190.0092158086
 20
-1015.4068072195
 10
1189.2208734838
 20
-1020.2212658965
 10
1188.0839884827
 20
-1025.012443851
 10
1186.600555288
 20
-1029.771935729
 10
1184.7731763456
 20
-1034.4913917644
 10
1182.6050574991
 20
-1039.1625324276
 10
1180.1000023656
 20
-1043.7771629507
 10
1177.2624056631
 20
-1048.3271877037
 10
1174.0972455005
 20
-1052.804624397
 10
1170.6100746441
 20
-1057.2016180852
 10
1166.8070107767
 20
-1061.5104549472
 10
1162.6947257645
 20
-1065.7235758192
 10
1158.2804339528
 20
-1069.8335894554
 10
1153.5718795094
 20
-1073.8332854953
 10
1148.5773228388
 20
-1077.715647113
 10
1143.3055260906
 20
-1081.473863327
 10
1137.7657377876
 20
-1085.1013409489
 10
1131.967676601
 20
-1088.5917161504
 10
1125.9215143002
 20
-1091.9388656274
 10
1119.6378579085
 20
-1095.1369173422
 10
1113.1277310943
 20
-1098.1802608256
 10
1106.4025548322
 20
-1101.0635570188
 10
1099.4741273667
 20
-1103.7817476407
 10
1092.3546035138
 20
-1106.3300640611
 10
1085.0564733375
 20
-1108.7040356673
 10
1077.5925402382
 20
-1110.8994977062
 10
1069.9758984907
 20
-1112.9125985915
 10
1062.2199102728
 20
-1114.7398066602
 10
1054.3381822233
 20
-1116.3779163684
 10
1046.3445415715
 20
-1117.8240539151
 10
1038.2530118794
 20
-1119.0756822835
 10
1030.0777884395
 20
-1120.1306056923
 10
1021.8332133717
 20
-1120.9869734473
 10
1013.5337504623
 20
-1121.6432831884
 10
1005.1939597892
 20
-1122.0983835255
 10
996.8284721793
 20
-1122.3514760577
 10
988.4519635404
 20
-1122.4021167749
 10
980.0791291151
 20
-1122.250216836
 10
971.7246577
 20
-1121.8960427251
 10
963.4032058768
 20
-1121.340215784
 10
955.1293722998
 20
-1120.583711122
 10
946.9176720844
 20
-1119.6278559052
 10
938.7825113432
 20
-1118.4743270287
 10
930.7381619125
 20
-1117.1251481739
 10
922.7987363146
 20
-1115.5826862591
 10
914.978163
 20
-1113.8496472866
 10
907.2901619116
 20
-1111.9290715956
 10
899.7482204158
 20
-1109.8243285285
 10
892.3655696407
 20
-1107.5391105199
 10
885.1551612644
 20
-1105.0774266186
 10
878.1296447933
 20
-1102.4435954548
 10
871.3013453706
 20
-1099.6422376632
 10
864.6822421537
 20
-1096.6782677773
 10
858.283947299
 20
-1093.5568856075
 10
852.1176855896
 20
-1090.2835671188
 10
846.194274744
 20
-1086.864054824
 10
840.5241064376
 20
-1083.3043477097
 10
835.1171280723
 20
-1079.6106907117
 10
829.9828253255
 20
-1075.7895637596
 10
825.1302055088
 20
-1071.8476704084
 10
820.5677817663
 20
-1067.7919260786
 10
816.3035581397
 20
-1063.6294459239
 10
812.345015526
 20
-1059.3675323488
 10
808.6990985543
 20
-1055.013662198
 10
805.3722034017
 20
-1050.5754736391
 10
802.3701665729
 20
-1046.0607527631
 10
799.6982546604
 20
-1041.4774199245
 10
797.3611551059
 20
-1036.8335158464
 10
795.3629679759
 20
-1032.1371875147
 10
793.7071987698
 20
-1027.396673885
 10
792.3967522694
 20
-1022.6202914291
 10
791.4339274431
 20
-1017.8164195449
 10
790.8204134128
 20
-1012.993485856
 10
790.5572864906
 20
-1008.1599514269
 10
790.6450082906
 20
-1003.3242959195
 10
791.0834249188
 20
-998.4950027167
 10
791.8717672436
 20
-993.6805440398
 10
793.0086522447
 20
-988.8893660852
 10
794.4920854394
 20
-984.1298742073
 10
796.3194643818
 20
-979.4104181718
 10
798.4875832283
 20
-974.7392775086
 10
800.9926383618
 20
-970.1246469855
 10
803.8302350643
 20
-965.5746222326
 10
806.9953952269
 20
-961.0971855393
 10
810.4825660833
 20
-956.7001918511
 10
814.2856299507
 20
-952.391354989
 10
818.3979149629
 20
-948.1782341171
 10
822.8122067746
 20
-944.0682204809
 10
827.520761218
 20
-940.0685244409
 10
832.5153178886
 20
-936.1861628232
 10
837.7871146368
 20
-932.4279466093
 10
843.3269029398
 20
-928.8004689874
 10
849.1249641264
 20
-925.3100937859
  0
LWPOLYLINE
  5
E7
330
1F
100
AcDbEntity
  8
0
  6
Continuous
 62
     7
370
    25
100
AcDbPolyline
 90
      136
 70
   128
 43
0.0
 10
874.7929402835
 20
-940.1279010154
 10
869.5328261601
 20
-943.3092240096
 10
864.5348003183
 20
-946.6283807132
 10
859.809687369
 20
-950.078182572
 10
855.3677208547
 20
-953.6511580831
 10
851.2185210858
 20
-957.3395689774
 10
847.371074305
 20
-961.1354269781
 10
843.8337132253
 20
-965.0305111022
 10
840.6140989832
 20
-969.0163854646
 10
837.7192045461
 20
-973.0844175491
 10
835.1552996108
 20
-977.225796904
 10
832.9279370244
 20
-981.431554224
 10
831.0419407584
 20
-985.6925807751
 10
829.5013954606
 20
-989.9996481226
 10
828.3096376091
 20
-994.3434281178
 10
827.4692482861
 20
-998.7145131005
 10
826.9820475877
 20
-1003.1034362739
 10
826.8490906821
 20
-1007.5006922077
 10
827.0706655244
 20
-1011.8967574248
 10
827.6462922328
 20
-1016.2821110269
 10
828.574724128
 20
-1020.6472553144
 10
829.8539504333
 20
-1024.982736357
 10
831.4812006294
 20
-1029.279164468
 10
833.4529504547
 20
-1033.527234541
 10
835.7649295381
 20
-1037.717746202
 10
838.4121306478
 20
-1041.841623736
 10
841.3888205356
 20
-1045.8899357425
 10
844.6885523541
 20
-1049.8539144792
 10
848.3041796189
 20
-1053.7249748508
 10
852.2278716865
 20
-1057.4947330025
 10
856.4511307136
 20
-1061.1550244777
 10
860.9648100616
 20
-1064.6979219
 10
865.759134106
 20
-1068.1157521426
 10
870.8237194086
 20
-1071.4011129462
 10
876.1475972055
 20
-1074.5468889509
 10
881.7192371627
 20
-1077.5462671064
 10
887.5265723488
 20
-1080.3927514275
 10
893.5570253691
 20
-1083.0801770629
 10
899.7975356049
 20
-1085.6027236472
 10
906.2345875009
 20
-1087.9549279062
 10
912.854239836
 20
-1090.1316954893
 10
919.6421559173
 20
-1092.1283120026
 10
926.58363463
 20
-1093.9404532192
 10
933.663642277
 20
-1095.564194445
 10
940.8668451383
 20
-1096.9960190179
 10
948.1776426804
 20
-1098.2328259247
 10
955.5802013439
 20
-1099.2719365171
 10
963.058488835
 20
-1100.111100313
 10
970.5963088483
 20
-1100.7484998704
 10
978.1773361441
 20
-1101.1827547238
 10
985.7851519055
 20
-1101.4129243738
 10
993.4032792975
 20
-1101.4385103244
 10
1001.0152191526
 20
-1101.259457162
 10
1008.6044857042
 20
-1100.8761526759
 10
1016.1546422908
 20
-1100.2894270183
 10
1023.6493369545
 20
-1099.5005509063
 10
1031.0723378555
 20
-1098.5112328698
 10
1038.4075684268
 20
-1097.3236155515
 10
1045.6391421925
 20
-1095.940271066
 10
1052.7513971739
 20
-1094.3641954294
 10
1059.7289298107
 20
-1092.5988020706
 10
1066.5566283207
 20
-1090.6479144385
 10
1073.2197054295
 20
-1088.5157577213
 10
1079.7037303957
 20
-1086.2069496956
 10
1085.994660265
 20
-1083.7264907256
 10
1092.0788702843
 20
-1081.0797529329
 10
1097.9431834094
 20
-1078.2724685624
 10
1103.574898844
 20
-1075.3107175668
 10
1108.9618195465
 20
-1072.2009144393
 10
1114.0922786462
 20
-1068.949794321
 10
1118.955164711
 20
-1065.564398414
 10
1123.5399458127
 20
-1062.0520587321
 10
1127.8366923364
 20
-1058.420382221
 10
1131.8360984857
 20
-1054.6772342831
 10
1135.5295024376
 20
-1050.8307217435
 10
1138.9089051016
 20
-1046.8891752919
 10
1141.966987444
 20
-1042.86113144
 10
1144.6971263394
 20
-1038.755314034
 10
1147.0934089148
 20
-1034.58061536
 10
1149.150645356
 20
-1030.3460768859
 10
1150.8643801467
 20
-1026.0608696789
 10
1152.2309017191
 20
-1021.7342745438
 10
1153.2472504918
 20
-1017.375661922
 10
1153.9112252795
 20
-1012.9944715981
 10
1154.2213880608
 20
-1008.6001922545
 10
1154.1770670922
 20
-1004.202340922
 10
1153.7783583629
 20
-999.8104423672
 10
1153.0261253874
 20
-995.4340084643
 10
1151.9219973347
 20
-991.0825175947
 10
1150.4683655004
 20
-986.7653941187
 10
1148.6683781272
 20
-982.4919879643
 10
1146.5259335871
 20
-978.2715543776
 10
1144.0456719379
 20
-974.1132338782
 10
1141.2329648739
 20
-970.0260324621
 10
1138.0939040923
 20
-966.0188020975
 10
1134.6352880999
 20
-962.1002215531
 10
1130.8646074886
 20
-958.2787776018
 10
1126.7900287131
 20
-954.5627466402
 10
1122.4203764037
 20
-950.9601767639
 10
1117.7651142542
 20
-947.478870337
 10
1112.8343245258
 20
-944.1263670941
 10
1107.6386862112
 20
-940.9099278106
 10
1102.1894519059
 20
-937.8365185779
 10
1096.4984234381
 20
-934.9127957158
 10
1090.5779263081
 20
-932.1450913572
 10
1084.4407829944
 20
-929.5393997333
 10
1078.1002851827
 20
-927.101364192
 10
1071.5701649795
 20
-924.8362649754
 10
1064.8645651711
 20
-922.7490077839
 10
1057.9980085933
 20
-920.844113152
 10
1050.9853666788
 20
-919.125706657
 10
1043.8418272483
 20
-917.597509985
 10
1036.5828616177
 20
-916.2628328695
 10
1029.2241910899
 20
-915.1245659241
 10
1021.7817529068
 20
-914.1851743814
 10
1014.2716657323
 20
-913.4466927544
 10
1006.7101947428
 20
-912.9107204298
 10
999.1137164007
 20
-912.5784182042
 10
991.4986829865
 20
-912.4505057705
 10
983.881586967
 20
-912.5272601583
 10
976.2789252759
 20
-912.8085151348
 10
968.7071635856
 20
-913.2936615644
 10
961.1827006457
 20
-913.9816487278
 10
953.7218327676
 20
-914.8709865981
 10
946.3407185296
 20
-915.9597490676
 10
939.0553437817
 20
-917.245578119
 10
931.8814870231
 20
-918.7256889332
 10
924.8346852303
 20
-920.3968759195
 10
917.9302002067
 20
-922.2555196591
 10
911.1829855294
 20
-924.2975947436
 10
904.6076541629
 20
-926.5186784931
 10
898.2184468109
 20
-928.9139605346
 10
892.0292010737
 20
-931.4782532208
 10
886.0533214794
 20
-934.2060028647
 10
880.3037504525
 20
-937.0913017679
 10
874.7929402835
 20
-940.1279010154
  0
LWPOLYLINE
  5
E8
330
1F
100
AcDbEntity
  8
0
  6
Continuous
 62
     1
370
    25
100
AcDbPolyline
 90
       20
 70
   128
 43
0.0
 10
1131.967676601
 20
-720.3583500025
 10
1137.8897883447
 20
-723.6338633371
 10
1143.8015106921
 20
-726.617132299
 10
1149.6924724733
 20
-729.3029232207
 10
1155.5523389396
 20
-731.6865243123
 10
1161.370829894
 20
-733.7637539275
 10
1167.1377377264
 20
-735.5309678997
 10
1172.8429453206
 20
-736.9850659352
 10
1178.476443804
 20
-738.1234970518
 10
1184.0283501059
 20
-738.9442640546
 10
1189.4889242962
 20
-739.4459270393
 10
1194.8485866722
 20
-739.6276059185
 10
1200.0979345648
 20
-739.4889819659
 10
1205.2277588341
 20
-739.0302983748
 10
1210.2290600253
 20
-738.2523598323
 10
1215.0930641565
 20
-737.1565311068
 10
1219.8112381118
 20
-735.7447346543
 10
1224.3753046107
 20
-734.0194472454
 10
1228.7772567298
 20
-731.9836956207
 10
1231.9595498646
 20
-730.2599601015
  0
LWPOLYLINE
  5
E9
330
1F
100
AcDbEntity
  8
0
  6
Continuous
 62
     1
370
    25
100
AcDbPolyline
 90
       58
 70
   128
 43
0.0
 10
1031.9758033374
 20
-383.8404151492
 10
1030.9259812528
 20
-384.4593240707
 10
1026.8711275013
 20
-387.1047515327
 10
1023.0006488088
 20
-390.0483210375
 10
1019.3213353104
 20
-393.2848685639
 10
1015.8396417721
 20
-396.8087161078
 10
1012.5616762675
 20
-400.6136816431
 10
1009.4931894618
 20
-404.6930899674
 10
1006.6395645238
 20
-409.0397844123
 10
1004.0058076811
 20
-413.6461393987
 10
1001.5965394382
 20
-418.5040738147
 10
999.4159864703
 20
-423.6050651926
 10
997.4679742082
 20
-428.9401646602
 10
995.7559201275
 20
-434.5000126402
 10
994.2828277527
 20
-440.2748552699
 10
993.0512813883
 20
-446.2545615131
 10
992.0634415853
 20
-452.4286409331
 10
991.3210413503
 20
-458.7862620966
 10
990.8253831056
 20
-465.3162715759
 10
990.5773364041
 20
-472.0072135153
 10
990.5773364041
 20
-478.847349729
 10
990.8253831056
 20
-485.824680294
 10
991.3210413503
 20
-492.9269646013
 10
992.0634415853
 20
-500.1417428311
 10
993.0512813883
 20
-507.4563578107
 10
994.2828277527
 20
-514.8579772199
 10
995.7559201275
 20
-522.3336161031
 10
997.4679742082
 20
-529.8701596495
 10
999.4159864703
 20
-537.4543862009
 10
1001.5965394382
 20
-545.0729904467
 10
1004.0058076811
 20
-552.7126067661
 10
1006.6395645238
 20
-560.3598326764
 10
1009.4931894618
 20
-568.0012523445
 10
1012.5616762675
 20
-575.623460124
 10
1015.8396417721
 20
-583.2130840723
 10
1019.3213353104
 20
-590.75680941
 10
1023.0006488088
 20
-598.2414018795
 10
1026.8711275013
 20
-605.6537309623
 10
1030.9259812528
 20
-612.9807929145
 10
1035.1580964722
 20
-620.2097335797
 10
1039.5600485913
 20
-627.3278709395
 10
1044.1241150903
 20
-634.3227173623
 10
1048.8422890455
 20
-641.1820015105
 10
1053.7062931768
 20
-647.893689869
 10
1058.7075943679
 20
-654.4460078557
 10
1063.8374186372
 20
-660.8274604785
 10
1069.0867665299
 20
-667.0268525009
 10
1074.4464289058
 20
-673.0333080827
 10
1079.9070030961
 20
-678.83628986
 10
1085.458909398
 20
-684.4256174307
 10
1091.0924078814
 20
-689.7914852151
 10
1096.7976154757
 20
-694.9244796578
 10
1102.564523308
 20
-699.8155957422
 10
1108.3830142624
 20
-704.4562527888
 10
1114.2428807287
 20
-708.8383095081
 10
1120.1338425099
 20
-712.9540782837
 10
1126.0455648573
 20
-716.7963386586
 10
1131.967676601
 20
-720.3583500025
  0
LWPOLYLINE
  5
EA
330
1F
100
AcDbEntity
  8
0
  6
Continuous
 62
     1
370
    25
100
AcDbPolyline
 90
       20
 70
   128
 43
0.0
 10
1131.967676601
 20
-720.3583500025
 10
1137.7657377876
 20
-723.848725204
 10
1143.3055260906
 20
-727.476202826
 10
1148.5773228388
 20
-731.2344190399
 10
1153.5718795094
 20
-735.1167806576
 10
1158.2804339528
 20
-739.1164766975
 10
1162.6947257645
 20
-743.2264903337
 10
1166.8070107767
 20
-747.4396112057
 10
1170.6100746441
 20
-751.7484480678
 10
1174.0972455005
 20
-756.145441756
 10
1177.2624056631
 20
-760.6228784492
 10
1180.1000023656
 20
-765.1729032022
 10
1182.6050574991
 20
-769.7875337253
 10
1184.7731763456
 20
-774.4586743885
 10
1186.600555288
 20
-779.1781304239
 10
1188.0839884827
 20
-783.9376223019
 10
1189.2208734838
 20
-788.7288002565
 10
1190.0092158086
 20
-793.5432589334
 10
1190.4476324368
 20
-798.3725521362
 10
1190.5463203637
 20
-801.9991611848
  0
LWPOLYLINE
  5
EB
330
1F
100
AcDbEntity
  8
0
  6
Continuous
 62
     1
370
    25
100
AcDbPolyline
 90
       58
 70
   128
 43
0.0
 10
790.5463203637
 20
-801.9991611848
 10
790.5572864906
 20
-800.790114726
 10
790.8204134128
 20
-795.9565802969
 10
791.4339274431
 20
-791.133646608
 10
792.3967522694
 20
-786.3297747238
 10
793.7071987699
 20
-781.5533922679
 10
795.3629679759
 20
-776.8128786383
 10
797.3611551059
 20
-772.1165503065
 10
799.6982546604
 20
-767.4726462285
 10
802.3701665729
 20
-762.8893133898
 10
805.3722034017
 20
-758.3745925138
 10
808.6990985543
 20
-753.936403955
 10
812.345015526
 20
-749.5825338042
 10
816.3035581397
 20
-745.3206202291
 10
820.5677817663
 20
-741.1581400743
 10
825.1302055088
 20
-737.1023957445
 10
829.9828253255
 20
-733.1605023933
 10
835.1171280723
 20
-729.3393754412
 10
840.5241064376
 20
-725.6457184433
 10
846.194274744
 20
-722.0860113289
 10
852.1176855896
 20
-718.6664990342
 10
858.283947299
 20
-715.3931805454
 10
864.6822421537
 20
-712.2717983756
 10
871.3013453706
 20
-709.3078284897
 10
878.1296447933
 20
-706.5064706981
 10
885.1551612644
 20
-703.8726395343
 10
892.3655696407
 20
-701.410955633
 10
899.7482204158
 20
-699.1257376244
 10
907.2901619116
 20
-697.0209945573
 10
914.978163
 20
-695.1004188664
 10
922.7987363146
 20
-693.3673798938
 10
930.7381619125
 20
-691.824917979
 10
938.7825113432
 20
-690.4757391243
 10
946.9176720844
 20
-689.3222102477
 10
955.1293722998
 20
-688.366355031
 10
963.4032058768
 20
-687.6098503689
 10
971.7246577
 20
-687.0540234278
 10
980.0791291151
 20
-686.6998493169
 10
988.4519635405
 20
-686.547949378
 10
996.8284721793
 20
-686.5985900952
 10
1005.1939597892
 20
-686.8516826275
 10
1013.5337504623
 20
-687.3067829645
 10
1021.8332133717
 20
-687.9630927057
 10
1030.0777884395
 20
-688.8194604606
 10
1038.2530118794
 20
-689.8743838694
 10
1046.3445415715
 20
-691.1260122379
 10
1054.3381822233
 20
-692.5721497845
 10
1062.2199102728
 20
-694.2102594927
 10
1069.9758984907
 20
-696.0374675614
 10
1077.5925402382
 20
-698.0505684467
 10
1085.0564733375
 20
-700.2460304857
 10
1092.3546035138
 20
-702.6200020918
 10
1099.4741273667
 20
-705.1683185123
 10
1106.4025548322
 20
-707.8865091341
 10
1113.1277310943
 20
-710.7698053273
 10
1119.6378579085
 20
-713.8131488107
 10
1125.9215143002
 20
-717.0112005256
 10
1131.967676601
 20
-720.3583500025
  0
ENDSEC
  0
SECTION
  2
OBJECTS
  0
DICTIONARY
  5
C
330
0
100
AcDbDictionary
281
     1
  3
ACAD_GROUP
350
D
  3
ACAD_LAYOUT
350
1A
  3
ACAD_MLINESTYLE
350
17
  3
ACAD_PLOTSETTINGS
350
19
  3
ACAD_PLOTSTYLENAME
350
E
  3
ACAD_SCALELIST
350
47
  3
DWGPROPS
350
EC
  0
DICTIONARY
  5
D
102
{ACAD_REACTORS
330
C
102
}
330
C
100
AcDbDictionary
281
     1
  0
DICTIONARY
  5
1A
102
{ACAD_REACTORS
330
C
102
}
330
C
100
AcDbDictionary
281
     1
  3
Layout1
350
1E
  3
Layout2
350
26
  3
Model
350
22
  0
DICTIONARY
  5
17
102
{ACAD_REACTORS
330
C
102
}
330
C
100
AcDbDictionary
281
     1
  3
Standard
350
18
  0
DICTIONARY
  5
19
102
{ACAD_REACTORS
330
C
102
}
330
C
100
AcDbDictionary
281
     1
  0
ACDBDICTIONARYWDFLT
  5
E
102
{ACAD_REACTORS
330
C
102
}
330
C
100
AcDbDictionary
281
     1
  3
Normal
350
F
100
AcDbDictionaryWithDefault
340
F
  0
DICTIONARY
  5
47
102
{ACAD_REACTORS
330
C
102
}
330
C
100
AcDbDictionary
281
     1
  3
A0
350
48
  3
A1
350
49
  3
A2
350
4A
  3
A3
350
4B
  3
A4
350
4C
  3
A5
350
4D
  3
A6
350
4E
  3
A7
350
4F
  3
A8
350
50
  3
A9
350
51
  3
B0
350
52
  3
B1
350
53
  3
B2
350
54
  3
B3
350
55
  3
B4
350
56
  3
B5
350
57
  3
B6
350
58
  3
B7
350
59
  3
B8
350
5A
  3
B9
350
5B
  3
C0
350
5C
  3
C1
350
5D
  3
C2
350
5E
  3
C3
350
5F
  3
C4
350
60
  3
C5
350
61
  3
C6
350
62
  3
C7
350
63
  3
C8
350
64
  3
C9
350
65
  3
D0
350
66
  3
D1
350
67
  3
D2
350
68
  0
XRECORD
  5
EC
102
{ACAD_REACTORS
330
C
102
}
330
C
100
AcDbXrecord
280
     1
  1
DWGPROPS COOKIE
  2

  3

  4

  6

  7

  8
b.kav
  9

300
=
301
=
302
=
303
=
304
=
305
=
306
=
307
=
308
=
309
=
 40
0.0
 41
2459935.574460243
 42
2459935.574460417
  1

 90
        0
  0
LAYOUT
  5
1E
102
{ACAD_REACTORS
330
1A
102
}
330
1A
100
AcDbPlotSettings
  1

  2
none_device
  4

  6

 40
0.0
 41
0.0
 42
0.0
 43
0.0
 44
0.0
 45
0.0
 46
0.0
 47
0.0
 48
0.0
 49
0.0
140
0.0
141
0.0
142
1.0
143
1.0
 70
   688
 72
     1
 73
     0
 74
     5
  7

 75
    16
147
1.0
148
0.0
149
0.0
100
AcDbLayout
  1
Layout1
 70
     1
 71
     1
 10
0.0
 20
0.0
 11
420.0
 21
297.0
 12
0.0
 22
0.0
 32
0.0
 14
1.0000000000E+20
 24
1.0000000000E+20
 34
1.0000000000E+20
 15
-1.0000000000E+20
 25
-1.0000000000E+20
 35
-1.0000000000E+20
146
0.0
 13
0.0
 23
0.0
 33
0.0
 16
1.0
 26
0.0
 36
0.0
 17
0.0
 27
1.0
 37
0.0
 76
     0
330
1B
  0
LAYOUT
  5
26
102
{ACAD_REACTORS
330
1A
102
}
330
1A
100
AcDbPlotSettings
  1

  2
none_device
  4

  6

 40
0.0
 41
0.0
 42
0.0
 43
0.0
 44
0.0
 45
0.0
 46
0.0
 47
0.0
 48
0.0
 49
0.0
140
0.0
141
0.0
142
1.0
143
1.0
 70
   688
 72
     1
 73
     0
 74
     5
  7

 75
    16
147
1.0
148
0.0
149
0.0
100
AcDbLayout
  1
Layout2
 70
     1
 71
     2
 10
0.0
 20
0.0
 11
0.0
 21
0.0
 12
0.0
 22
0.0
 32
0.0
 14
0.0
 24
0.0
 34
0.0
 15
0.0
 25
0.0
 35
0.0
146
0.0
 13
0.0
 23
0.0
 33
0.0
 16
1.0
 26
0.0
 36
0.0
 17
0.0
 27
1.0
 37
0.0
 76
     0
330
23
  0
LAYOUT
  5
22
102
{ACAD_REACTORS
330
1A
102
}
330
1A
100
AcDbPlotSettings
  1

  2
none_device
  4
Letter_(8.50_x_11.00_Inches)
  6

 40
6.35
 41
6.35
 42
6.35000508
 43
6.35000508
 44
215.9
 45
279.4
 46
0.0
 47
0.0
 48
0.0
 49
0.0
140
0.0
141
0.0
142
1.0
143
1.0
 70
  1712
 72
     1
 73
     0
 74
     0
  7

 75
     0
147
1.0
148
0.0
149
0.0
100
AcDbLayout
  1
Model
 70
     1
 71
     0
 10
0.0
 20
0.0
 11
279.4
 21
215.9
 12
0.0
 22
0.0
 32
0.0
 14
0.0
 24
0.0
 34
0.0
 15
279.4
 25
215.9
 35
0.0
146
0.0
 13
0.0
 23
0.0
 33
0.0
 16
1.0
 26
0.0
 36
0.0
 17
0.0
 27
1.0
 37
0.0
 76
     0
330
1F
331
29
  0
MLINESTYLE
  5
18
102
{ACAD_REACTORS
330
17
102
}
330
17
100
AcDbMlineStyle
  2
Standard
 70
     0
  3

 62
   256
 51
90.0
 52
90.0
 71
     2
 49
0.5
 62
   256
  6
BYLAYER
 49
-0.5
 62
   256
  6
BYLAYER
  0
ACDBPLACEHOLDER
  5
F
102
{ACAD_REACTORS
330
E
102
}
330
E
  0
SCALE
  5
48
102
{ACAD_REACTORS
330
47
102
}
330
47
100
AcDbScale
 70
     0
300
1:1
140
1.0
141
1.0
290
     1
  0
SCALE
  5
49
102
{ACAD_REACTORS
330
47
102
}
330
47
100
AcDbScale
 70
     0
300
1:2
140
1.0
141
2.0
290
     0
  0
SCALE
  5
4A
102
{ACAD_REACTORS
330
47
102
}
330
47
100
AcDbScale
 70
     0
300
1:4
140
1.0
141
4.0
290
     0
  0
SCALE
  5
4B
102
{ACAD_REACTORS
330
47
102
}
330
47
100
AcDbScale
 70
     0
300
1:5
140
1.0
141
5.0
290
     0
  0
SCALE
  5
4C
102
{ACAD_REACTORS
330
47
102
}
330
47
100
AcDbScale
 70
     0
300
1:8
140
1.0
141
8.0
290
     0
  0
SCALE
  5
4D
102
{ACAD_REACTORS
330
47
102
}
330
47
100
AcDbScale
 70
     0
300
1:10
140
1.0
141
10.0
290
     0
  0
SCALE
  5
4E
102
{ACAD_REACTORS
330
47
102
}
330
47
100
AcDbScale
 70
     0
300
1:16
140
1.0
141
16.0
290
     0
  0
SCALE
  5
4F
102
{ACAD_REACTORS
330
47
102
}
330
47
100
AcDbScale
 70
     0
300
1:20
140
1.0
141
20.0
290
     0
  0
SCALE
  5
50
102
{ACAD_REACTORS
330
47
102
}
330
47
100
AcDbScale
 70
     0
300
1:30
140
1.0
141
30.0
290
     0
  0
SCALE
  5
51
102
{ACAD_REACTORS
330
47
102
}
330
47
100
AcDbScale
 70
     0
300
1:40
140
1.0
141
40.0
290
     0
  0
SCALE
  5
52
102
{ACAD_REACTORS
330
47
102
}
330
47
100
AcDbScale
 70
     0
300
1:50
140
1.0
141
50.0
290
     0
  0
SCALE
  5
53
102
{ACAD_REACTORS
330
47
102
}
330
47
100
AcDbScale
 70
     0
300
1:100
140
1.0
141
100.0
290
     0
  0
SCALE
  5
54
102
{ACAD_REACTORS
330
47
102
}
330
47
100
AcDbScale
 70
     0
300
2:1
140
2.0
141
1.0
290
     0
  0
SCALE
  5
55
102
{ACAD_REACTORS
330
47
102
}
330
47
100
AcDbScale
 70
     0
300
4:1
140
4.0
141
1.0
290
     0
  0
SCALE
  5
56
102
{ACAD_REACTORS
330
47
102
}
330
47
100
AcDbScale
 70
     0
300
8:1
140
8.0
141
1.0
290
     0
  0
SCALE
  5
57
102
{ACAD_REACTORS
330
47
102
}
330
47
100
AcDbScale
 70
     0
300
10:1
140
10.0
141
1.0
290
     0
  0
SCALE
  5
58
102
{ACAD_REACTORS
330
47
102
}
330
47
100
AcDbScale
 70
     0
300
100:1
140
100.0
141
1.0
290
     0
  0
SCALE
  5
59
102
{ACAD_REACTORS
330
47
102
}
330
47
100
AcDbScale
 70
     0
300
1/128" = 1'-0"
140
0.0078125
141
12.0
290
     0
  0
SCALE
  5
5A
102
{ACAD_REACTORS
330
47
102
}
330
47
100
AcDbScale
 70
     0
300
1/64" = 1'-0"
140
0.015625
141
12.0
290
     0
  0
SCALE
  5
5B
102
{ACAD_REACTORS
330
47
102
}
330
47
100
AcDbScale
 70
     0
300
1/32" = 1'-0"
140
0.03125
141
12.0
290
     0
  0
SCALE
  5
5C
102
{ACAD_REACTORS
330
47
102
}
330
47
100
AcDbScale
 70
     0
300
1/16" = 1'-0"
140
0.0625
141
12.0
290
     0
  0
SCALE
  5
5D
102
{ACAD_REACTORS
330
47
102
}
330
47
100
AcDbScale
 70
     0
300
3/32" = 1'-0"
140
0.09375
141
12.0
290
     0
  0
SCALE
  5
5E
102
{ACAD_REACTORS
330
47
102
}
330
47
100
AcDbScale
 70
     0
300
1/8" = 1'-0"
140
0.125
141
12.0
290
     0
  0
SCALE
  5
5F
102
{ACAD_REACTORS
330
47
102
}
330
47
100
AcDbScale
 70
     0
300
3/16" = 1'-0"
140
0.1875
141
12.0
290
     0
  0
SCALE
  5
60
102
{ACAD_REACTORS
330
47
102
}
330
47
100
AcDbScale
 70
     0
300
1/4" = 1'-0"
140
0.25
141
12.0
290
     0
  0
SCALE
  5
61
102
{ACAD_REACTORS
330
47
102
}
330
47
100
AcDbScale
 70
     0
300
3/8" = 1'-0"
140
0.375
141
12.0
290
     0
  0
SCALE
  5
62
102
{ACAD_REACTORS
330
47
102
}
330
47
100
AcDbScale
 70
     0
300
1/2" = 1'-0"
140
0.5
141
12.0
290
     0
  0
SCALE
  5
63
102
{ACAD_REACTORS
330
47
102
}
330
47
100
AcDbScale
 70
     0
300
3/4" = 1'-0"
140
0.75
141
12.0
290
     0
  0
SCALE
  5
64
102
{ACAD_REACTORS
330
47
102
}
330
47
100
AcDbScale
 70
     0
300
1" = 1'-0"
140
1.0
141
12.0
290
     0
  0
SCALE
  5
65
102
{ACAD_REACTORS
330
47
102
}
330
47
100
AcDbScale
 70
     0
300
1-1/2" = 1'-0"
140
1.5
141
12.0
290
     0
  0
SCALE
  5
66
102
{ACAD_REACTORS
330
47
102
}
330
47
100
AcDbScale
 70
     0
300
3" = 1'-0"
140
3.0
141
12.0
290
     0
  0
SCALE
  5
67
102
{ACAD_REACTORS
330
47
102
}
330
47
100
AcDbScale
 70
     0
300
6" = 1'-0"
140
6.0
141
12.0
290
     0
  0
SCALE
  5
68
102
{ACAD_REACTORS
330
47
102
}
330
47
100
AcDbScale
 70
     0
300
1'-0" = 1'-0"
140
12.0
141
12.0
290
     0
  0
ENDSEC
  0
EOF
